El taller del maestro (BAJ)


Es una guitarra normal el que estara haciendo el bajo no va hacer un bajo de esos si no una  
guitarra escuchen bien la guitarra que hace el bajo. 
 
Intro:  E
        E        
--------------3--------3-------------------------------3--------3----------------  A
        A        
--------3-----------------2-5-3-----------------3----------------2-5-3---------  D
        D        
----3-2--3-2----2-0------------------------3-2--3-2----2-0--------------------  G
        G        
---------------------------------------------------------------------------------- Verso:  C
        C        
omo duele estar despierto y no poder cantar  E
        E        
--------------3--------3-------------------------------3--------3----------------  A
        A        
--------3-----------------2-5-3-----------------3----------------2-5-3---------  D
        D        
----3-2--3-2----2-0------------------------3-2--3-2----2-0--------------------  G
        G        
---------------------------------------------------------------------------------- Verso:  C
        C        
omo expresarte sin palabras, me muero si no estas  E
        E        
--------------3--------3-------------------------------3--------3----------------  A
        A        
--------3-----------------2-5-3-----------------3----------------2-5-3---------  D
        D        
----3-2--3-2----2-0------------------------3-2--3-2----2-0--------------------  G
        G        
---------------------------------------------------------------------------------- Verso:  E
        E        
l tiempo pasa y todo cambia, hoy lloro de soledad  E
        E        
--------------3--------3-------------------------------3--------3----------------  A
        A        
--------3-----------------2-5-3-----------------3----------------2-5-3---------  D
        D        
----3-2--3-2----2-0------------------------3-2--3-2----2-0--------------------  G
        G        
---------------------------------------------------------------------------------- Verso:  E
        E        
l sueno que llevo en el alma de repente ya no esta  E
        E        
--------------3--------3-------------------------------3--------3----------------  A
        A        
--------3-----------------2-5-3-----------------3----------------2-5-3---------  D
        D        
----3-2--3-2----2-0------------------------3-2--3-2----2-0--------------------  G
        G        
---------------------------------------------------------------------------------- Verso: que la sonrisa se ha marchado mis lagrimas caeran, mis lagrimas caeran  E
        E        
--------------3--------3-------------------------------3--------3----------------5--5--5--3--3--3--5--5--5--3--3--3  A
        A        
--------3-----------------2-5-3-----------------3----------------2-5-3-------------------------------------------------  D
        D        
----3-2--3-2----2-0------------------------3-2--3-2----2-0-----------------------------------------------------------  G
        G        
--------------------------------------------------------------------------------------------------------------------------  E
        E        
ntrada del coro:  A
        A        
l taller del maestro vengo, pues el me...................  E
        E        
------------5--3-3-3-3--------3-3-3-3-5-5-5-5-3-3-3--------3-3-3--33333------------------------------------  A
        A        
---3-3-3-3------------3-3-3-3-------------------------3-3-3-3--------------5-5-5-5-----------------------------  D
        D        
-----------------------------------------------------5---------------------------------------------------------------  G
        G        
-------------------------------------------------------------------------------------------------------------------- a conocerlo y entenderlo.................-  E
        E        
---5-5-5-5---3---1-1-1-3-3-------------------3--1-1-1-3---------------5-5-5-5-3-3-3-3-------------------------  A
        A        
------------------------------3--3s5s3----5-5-5---------------5s777------------------------------------------------  D
        D        
-------------------------------------------------------------------------------------------------------------------------  G
        G        
------------------------------------------------------------------------------------------------------------------------- Coro:  A
        A        
l taller del maestro vengo ahi ay el sol se......................  E
        E        
--3-3-3-3---5-5-5-5-------3-3-3-3---3-3---5-5-5-5 3-3-3-3--5-5-5-5---3-3-3-3--5-5-5-5--3-3-3-----5555--  A
        A        
--------------------------------------------------------------------------------------------------------------------------  D
        D        
--------------------------------------------------------------------------------------------------------------------------  G
        G        
--------------------------------------------------------------------------------------------------------------------------  D
        D        
espues el intro y misma secuencia visiten la pagina http://geocities.com/salmistas_musica/ para en contrar buenas canciones como esta Saludos a tijuana y a la "Montaña"

 A
        A        
lex C
        C        
ampos

Este fichero es trabajo propio de su transcriptor y representa su interpretación personal de la canción. El material contenido en esta página es para exclusivo uso privado, por lo que se prohibe su reproducción o retransmisión, así como su uso para fines comerciales.