Al Taller Del Maestro (TAB) (5)


OK. E
        E        
STE
        E        
 TEMA
        A        
 ME C
        C        
OSTO MUCHO SACARLO, ESTE
        E        
 INTRO  E
        E        
S UN POCO D
        D        
IFÍCIL D
        D        
E
        E        
 SACARLO PERO SOL
       SOL       
E
        E        
SCUCHEN LA
       LA       
 CANCIÓN LAS OTRAS VERSIONES NO SALÍAN PARA
        A        
 NADA
        A        
  ENCONTRARAN QUE E
        E        
STA
        A        
 TAB. E
        E        
STA
        A        
 BIEN Intro:  C
        C        
| | e)|--------------0----------|-------------0-----------| B)|--------1--------1-----1-|-------1--------1-----1--| G)|-----0-------------------|----0--------------------| D)|-----------3--------2----|----------3--------2-----| A)|--3----------------------|-3-----------------------| E)|- -----------------------|-------------------------|  G
        G        
E)|------------0---------------|  E
        E        
)|---1---0-------| B)|-------3--------3------3----|  B
        B        
)|-----------3---| G)|----------------------------|  G
        G        
)|---------------| x2 D)|-----0----0---------0-------|  D
        D        
)|---------------| A)|----------------------------|  A
        A        
)|-------0---2---| E)|- 3-------------------------|  E
        E        
)|---3-----------| EL INTRO E
        E        
S IGUAL QUE
        E        
 LOS PRIMEROS VERSOS  C
        C        
 G
        G        
 A
        A        
y como me duele estar despierto y e)|---------0-------| e)|---------0-------| e)|---------0-------| B)|-----1-----1---1-| B
        B        
)|-----1-----1---1-| B
        B        
)|-----1-----1---1-| G)|--0--------------| G
        G        
)|--0--------------| G
        G        
)|--0--------------| D)|-------3-----2---| D
        D        
)|-------3-----2---| D
        D        
)|-------3-----2---| A)|3----------------| A
        A        
)|3----------------| A
        A        
)|3----------------| E)|-----------------| E
        E        
)|-----------------| E
        E        
)|-----------------|  C
        C        
No poder cantar e)|-1----0--------| B)|-------------3-| G)|---------------| D)|---------------| A)|------0------2-| E)|-3-------------|  G
        G        
 C
        C        
ómo expre- sarte sin palabras, e)|---------0-------| e)|---------0-------| e)|---------0-------| B)|-----1-----1---1-| B
        B        
)|-----1-----1---1-| B
        B        
)|-----1-----1---1-| G)|--0--------------| G
        G        
)|--0--------------| G
        G        
)|--0--------------| D)|-------3-----2---| D
        D        
)|-------3-----2---| D
        D        
)|-------3-----2---| A)|3----------------| A
        A        
)|3----------------| A
        A        
)|3----------------| E)|-----------------| E
        E        
)|-----------------| E
        E        
)|-----------------|  C
        C        
Me muero si no estás. e)|-1----0--------| B)|-------------3-| G)|---------------| D)|---------------| A)|------0------2-| E)|-3-------------|  G
        G        
Que el tiempo pasa y todo cambia, e)|---------0-------| e)|---------0-------| e)|---------0-------| B)|-----1-----1---1-| B
        B        
)|-----1-----1---1-| B
        B        
)|-----1-----1---1-| G)|--0--------------| G
        G        
)|--0--------------| G
        G        
)|--0--------------| D)|-------3-----2---| D
        D        
)|-------3-----2---| D
        D        
)|-------3-----2---| A)|3----------------| A
        A        
)|3----------------| A
        A        
)|3----------------| E)|-----------------| E
        E        
)|-----------------| E
        E        
)|-----------------|  C
        C        
hoy lloro de soledad; e)|---1----0--------| B)|---------------3-| G)|-----------------| D)|-----------------| A)|--------0------2-| E)|---3-------------|  G
        G        
Que el sueño que llevo en el alma e)|---------0-------| e)|---------0-------| e)|---------0-------| B)|-----1-----1---1-| B
        B        
)|-----1-----1---1-| B
        B        
)|-----1-----1---1-| G)|--0--------------| G
        G        
)|--0--------------| G
        G        
)|--0--------------| D)|-------3-----2---| D
        D        
)|-------3-----2---| D
        D        
)|-------3-----2---| A)|3----------------| A
        A        
)|3----------------| A
        A        
)|3----------------| E)|-----------------| E
        E        
)|-----------------| E
        E        
)|-----------------|  C
        C        
de repente ya no está; e)|---1----0--------| B)|---------------3-| G)|-----------------| D)|-----------------| A)|--------0------2-| E)|---3-------------|  G
        G        
Que la son- risa se ha marchado e)|---------0-------| e)|---------0-------| e)|---------0-------| B)|-----1-----1---1-| B
        B        
)|-----1-----1---1-| B
        B        
)|-----1-----1---1-| G)|--0--------------| G
        G        
)|--0--------------| G
        G        
)|--0--------------| D)|-------3-----2---| D
        D        
)|-------3-----2---| D
        D        
)|-------3-----2---| A)|3----------------| A
        A        
)|3----------------| A
        A        
)|3----------------| E)|-----------------| E
        E        
)|-----------------| E
        E        
)|-----------------| Am
       Am       
  G
        G        
//mis lagrimas caerá--an// e)|---1----0--I B)|-----------| G)|-----------|  A
        A        
QUÍ YA
        A        
 SE
        E        
 TOCAN A
        A        
CORDES D)|-----------| A)|--------0--| E)|---3-------| Coro: C
        C        
   G
        G        
 C
        C        
Al taller del maestro vengo, pues Él me curará  G
        G        
Am
       Am       
  Me tomará entre sus brazos y cada herida sanará  G
        G        
 C
        C        
Las herramientas del maestro, mi alma Él remendará  G
        G        
Dm
       Dm       
  Martillo en mano y mucho fuego, aunque me duela ayudará Am
       Am       
   F
        F        
A
        A        
 conocerlo y entenderlo, a saber que nada merezco,  C
        C        
Gm
       Gm       
  Amar es más que un pretexto, es una entrega, es un negar Dm
       Dm       
  Am
       Am       
  E
        E        
Más que aquel sentimiento, es la decisión de ama--ar Am
       Am       
  Al taller del maestro vengo;  E
        E        
Ahí, ahí el sol se pondrá Am
       Am       
  Al taller del maestro vengo;  E
        E        
Carpintero mi alma aquí está Am
       Am       
  Al taller del maestro vengo;  E
        E        
No importa el tiempo que allí he de estar Al taller del maestro... Intro (Solo una vez) (se sigue la misma secuencia de arriba, se pueden ubicar por los acordes) C
        C        
   G
        G        
 C
        C        
Ay de aquellos días que hizo frío, el sol no apareció;  G
        G        
 C
        C        
Cuando el talento no lo es todo y el silencio vale más  G
        G        
 C
        C        
Que mil palabras sin sentido; la vida que morirá  G
        G        
 C
        C        
Si tú no estás aquí conmigo de qué sirve mi cantar,  G
        G        
 C
        C        
¿Para qué la fama y las estrellas, si el maestro allí no está?  G
        G        
Am
       Am       
  ¿Para qué decirte que te amo, si contigo no quiero estar? Comentarios o sugerencias: jonatanmarquezrocketmail.com Esto es todo por ahora Que D
        D        
ios les bendiga adiós...

 A
        A        
lex C
        C        
ampos

Este fichero es trabajo propio de su transcriptor y representa su interpretación personal de la canción. El material contenido en esta página es para exclusivo uso privado, por lo que se prohibe su reproducción o retransmisión, así como su uso para fines comerciales.