Más de 1000 años (BAJ) (2)


Si necesitas una tab en especial escríbeme...

http://www.myspace.com/alejandrolauyola



     W                   W                   W
G||-------------------|-------------------|-------------------|
D||-------------------|-------------------|-------------------|
A||-------------------|-------------------|-------------------|
E||-------------------|-------------------|-------------------|


  W                   W                   W
-------------------|-------------------|-------------------|
-------------------|-------------------|-------------------|
-------------------|-------------------|-------------------|
-------------------|-------------------|-------------------|


  W                   W                   W
-------------------|-------------------|-------------------|
-------------------|-------------------|-------------------|
-------------------|-------------------|-------------------|
-------------------|-------------------|-------------------|


  W                   W                   W
-------------------|-------------------|-------------------|
-------------------|-------------------|-------------------|
-------------------|-------------------|-------------------|
-------------------|-------------------|-------------------|


  E
        E        
 E
        E        
 E
        E        
 E
        E        
 E
        E        
 E
        E        
 E
        E        
 E
        E        
 E
        E        
 E
        E        
 E
        E        
 E
        E        
 E
        E        
 E
        E        
 E
        E        
 E
        E        
--------------------------|--------------------------| --------------------------|--------------------------| --------------------------|--------------------------| --6-----6-----6-----6-----|--5-----5-----5-----5-----|  E
        E        
 E
        E        
 E
        E        
 E
        E        
 E
        E        
 E
        E        
 E
        E        
 E
        E        
 E
        E        
 E
        E        
 E
        E        
 E
        E        
 E
        E        
 E
        E        
 E
        E        
 E
        E        
--------------------------|--------------------------| --------------------------|--------------------------| --------------------------|--------------------------| --4-----4-----4-----4-----|--3-----3-----3-----3--5--|  E
        E        
 E
        E        
 E
        E        
 E
        E        
 E
        E        
 E
        E        
 E
        E        
 E
        E        
 E
        E        
 E
        E        
 E
        E        
 E
        E        
 E
        E        
 E
        E        
 E
        E        
 E
        E        
--------------------------|--------------------------| --------------------------|--------------------------| --------------------------|-----------------------5--| --6-----6-----6-----6-----|--5-----5-----5-----5-----|  E
        E        
 E
        E        
 E
        E        
 E
        E        
 E
        E        
 E
        E        
 E
        E        
 E
        E        
 E
        E        
 E
        E        
 E
        E        
 E
        E        
 E
        E        
 E
        E        
 E
        E        
 E
        E        
--------------------------|----------------------------| --------------------------|----------------------5--7--| --7-----7--L--7--5--7--5--|-----------------5g7--------| --------------------------|--5-----5-----5-------------|  E
        E        
 E
        E        
 E
        E        
 E
        E        
 E
        E        
 E
        E        
 E
        E        
 E
        E        
 E
        E        
 E
        E        
 E
        E        
 E
        E        
 E
        E        
Q. --------------------------|------------------------| --5--L--5-----------------|--5--L--5---------------| -----------5-----------5--|-----------5------------| --------------3--L--3-----|--------------3---------| Q  E
        E        
 E
        E        
 E
        E        
 E
        E        
Q  E
        E        
 E
        E        
 E
        E        
 E
        E        
 E
        E        
 E
        E        
 E
        E        
 E
        E        
------------------------|--------------------------| ------------------------|--------------------------| ------------------------|--------------------------| --1----1--3--5-----5----|--3-----3-----3-----3-----| Q  E
        E        
 E
        E        
 E
        E        
 E
        E        
Q  E
        E        
 E
        E        
 E
        E        
 E
        E        
 E
        E        
 E
        E        
 E
        E        
 E
        E        
------------------------|--------------------------| ------------------------|--------------5--L--------| ------------------------|-----------5--------5-----| --1----1--3--5-----5----|--3-----3--------------3--| Q Q Q Q Q Q Q  E
        E        
 E
        E        
----------------------|-----------------------| ----------------------|-----------------------| --5----5--------------|-----------------------| ------------0----0----|--1----1----1----1--1--|  E
        E        
 E
        E        
 E
        E        
 E
        E        
 E
        E        
 E
        E        
 E
        E        
 E
        E        
 E
        E        
 E
        E        
 E
        E        
 E
        E        
 E
        E        
 E
        E        
 E
        E        
 E
        E        
--------------------------|--------------------------| --------------------------|--------------------------| --5-----5-----5-----5-----|--5-----5-----5-----5-----| --------------------------|-----------------------0--|  E
        E        
 E
        E        
 E
        E        
 E
        E        
 E
        E        
 E
        E        
 E
        E        
 E
        E        
 E
        E        
 E
        E        
 E
        E        
 E
        E        
 E
        E        
 E
        E        
 E
        E        
 E
        E        
--------------------------|--------------------------| --------------------------|--------------------------| --------------------------|--------------------------| --1-----1-----1-----1-----|--1-----1-----1-----1-----|  E
        E        
 E
        E        
 E
        E        
 E
        E        
 E
        E        
 E
        E        
 E
        E        
 E
        E        
 E
        E        
 E
        E        
 E
        E        
 E
        E        
 E
        E        
 E
        E        
 E
        E        
 E
        E        
--------------------------|--------------------------| --------------------------|--------------------------| --------------------------|--1-----1-----1-----1-----| --2-----2-----2-----2-----|--------------------------| W W W -------------------|-------------------|-------------------| -------------------|-------------------|-------------------| --1----------------|--L----------------|-------------------| -------------------|-------------------|--1----------------| H.  E
        E        
 E
        E        
W Q Q Q Q ---------------------|-------------------|-----------------------| ---------------------|-------------------|-----------------------| ---------------------|--3----------------|--L----L----L----3S----| --L------------L--3--|-------------------|-----------------------|  E
        E        
 E
        E        
 E
        E        
 E
        E        
 E
        E        
 E
        E        
 E
        E        
 E
        E        
 E
        E        
 E
        E        
 E
        E        
 E
        E        
 E
        E        
 E
        E        
 E
        E        
 E
        E        
--------------------------|----------------------------| --------------------------|----------------------------| --8--8--8--8--8--8--8--8--|--8--8--8--8--8--8--8s--10--| --------------------------|----------------------------|  E
        E        
 E
        E        
 E
        E        
 E
        E        
 E
        E        
 E
        E        
 E
        E        
 E
        E        
 E
        E        
 E
        E        
 E
        E        
 E
        E        
 E
        E        
 E
        E        
Q ------------------------------12--|--------------------------------| --10--10--10--10--10--10--10------|--10--10--10--10--10--10--------| ----------------------------------|--------------------------3S----| ----------------------------------|--------------------------------|  E
        E        
 E
        E        
 E
        E        
 E
        E        
 E
        E        
 E
        E        
 E
        E        
 E
        E        
 E
        E        
 E
        E        
 E
        E        
 E
        E        
 E
        E        
 E
        E        
 E
        E        
 E
        E        
--------------------------|----------------------------| --------------------------|----------------------------| --8--8--8--8--8--8--8--8--|--8--8--8--8--8--8--8s--10--| --------------------------|----------------------------|  E
        E        
 E
        E        
 E
        E        
 E
        E        
 E
        E        
 E
        E        
 E
        E        
 E
        E        
----------------------------------| --10--10--10--10--10--10--10------| ------------------------------10--| ----------------------------------|  E
        E        
 E
        E        
 E
        E        
 E
        E        
 E
        E        
 E
        E        
S S  E
        E        
 E
        E        
 E
        E        
 E
        E        
 E
        E        
 E
        E        
 E
        E        
 E
        E        
 E
        E        
------------------------------------|--------------------------| --10--10--10--10--10--10--------10--|--------------------------| --------------------------8s-10-----|--------------------------| ------------------------------------|--6-----6-----6-----6-----|  E
        E        
 E
        E        
 E
        E        
 E
        E        
 E
        E        
 E
        E        
 E
        E        
 E
        E        
 E
        E        
 E
        E        
 E
        E        
 E
        E        
 E
        E        
 E
        E        
 E
        E        
 E
        E        
--------------------------|--------------------------| --------------------------|--------------------------| --------------------------|--------------------------| --5-----5-----5-----5-----|--4-----4-----4-----4-----|  E
        E        
 E
        E        
 E
        E        
 E
        E        
 E
        E        
 E
        E        
 E
        E        
 E
        E        
 E
        E        
 E
        E        
 E
        E        
 E
        E        
 E
        E        
 E
        E        
 E
        E        
 E
        E        
--------------------------|--------------------------| --------------------------|--------------------------| --------------------------|--------------------------| --3-----3-----3-----3--5--|--6-----6-----6-----6-----|  E
        E        
 E
        E        
 E
        E        
 E
        E        
 E
        E        
 E
        E        
 E
        E        
 E
        E        
 E
        E        
 E
        E        
 E
        E        
 E
        E        
 E
        E        
 E
        E        
 E
        E        
 E
        E        
--------------------------|--------------7g9-----------| --------------------------|-------------------9-----9--| -----------------------5--|--7-----7-------------7-----| --5-----5-----5-----5-----|----------------------------| Q  E
        E        
 E
        E        
 E
        E        
 E
        E        
Q  E
        E        
 E
        E        
 E
        E        
 E
        E        
 E
        E        
 E
        E        
 E
        E        
 E
        E        
-------------------------|--------------------------| --7---------------------|--------------5--L--5-----| -------------------------|-----------5-----------5--| --------5-----5-----5----|--3--L--3-----------------|  E
        E        
 E
        E        
 E
        E        
 E
        E        
Q Q Q  E
        E        
 E
        E        
 E
        E        
 E
        E        
Q -------------------------|------------------------| --------------5---------|------------------------| -----------5-------------|------------------------| --3--L--3----------------|--1----1--3--5-----5----|  E
        E        
 E
        E        
 E
        E        
 E
        E        
 E
        E        
 E
        E        
 E
        E        
 E
        E        
Q  E
        E        
 E
        E        
 E
        E        
 E
        E        
Q --------------------------|------------------------| --------------------------|------------------------| --------------------------|------------------------| --3-----3-----3-----3-----|--1----1--3--5-----5----|  E
        E        
 E
        E        
 E
        E        
 E
        E        
 E
        E        
 E
        E        
 E
        E        
 E
        E        
 E
        E        
 E
        E        
 E
        E        
 E
        E        
 E
        E        
 E
        E        
 E
        E        
 E
        E        
--------------------------|--------------------------| --------------------------|--------------------------| -----------------------3--|--5-----5-----7-----7-----| --3-----3-----3--3--3-----|--------------------------|  E
        E        
 E
        E        
 E
        E        
 E
        E        
 E
        E        
 E
        E        
 E
        E        
 E
        E        
 E
        E        
 E
        E        
 E
        E        
 E
        E        
 E
        E        
 E
        E        
 E
        E        
 E
        E        
--------------------------|--------------------------| --------------------------|--------------------------| --8--L--8--L--8--L--8--7--|--5-----5-----5-----5-----| --------------------------|-----------------------5--|  E
        E        
 E
        E        
 E
        E        
 E
        E        
 E
        E        
 E
        E        
 E
        E        
 E
        E        
 E
        E        
 E
        E        
 E
        E        
 E
        E        
 E
        E        
 E
        E        
 E
        E        
 E
        E        
--------------------------|--------------------------| --------------------------|--------------------------| --5-----5-----5-----5-----|--------------------------| -----------------------0--|--1-----1-----1-----1-----|  E
        E        
 E
        E        
 E
        E        
 E
        E        
 E
        E        
 E
        E        
 E
        E        
 E
        E        
 E
        E        
 E
        E        
 E
        E        
 E
        E        
 E
        E        
 E
        E        
 E
        E        
 E
        E        
--------------------------|--------------------------| --------------------------|--------------------------| --------------------------|--------------------------| --1-----1-----1-----1-----|--2-----2-----2-----2-----|  E
        E        
 E
        E        
 E
        E        
 E
        E        
 E
        E        
 E
        E        
 E
        E        
 E
        E        
W --------------------------|-------------------| --------------------------|-------------------| --1-----1-----1-----1-----|--1----------------| --------------------------|-------------------| Q  E
        E        
 E
        E        
Q  E
        E        
 E
        E        
Q  E
        E        
 E
        E        
 E
        E        
 E
        E        
 E
        E        
 E
        E        
------------------------|-------------------------| ------------------------|-------------------------| --5----5--5--5----5--7--|----------------------3--| ------------------------|--5----5--5--3--3--3-----| Q  E
        E        
 E
        E        
 E
        E        
 E
        E        
 E
        E        
 E
        E        
Q  E
        E        
 E
        E        
 E
        E        
 E
        E        
 E
        E        
 E
        E        
-------------------------|-------------------------| -------------------------|-------------------------| --5----5--5--5--5--5--7--|-------------------------| -------------------------|--5----5--5--3--3--3--5--| Q  E
        E        
 E
        E        
Q  E
        E        
 E
        E        
Q  E
        E        
 E
        E        
Q  E
        E        
 E
        E        
------------------------|------------------------| ------------------------|------------------------| ------------------------|------------------------| --1-------1--1-------3--|--5-------5--3-------3--| Q  E
        E        
 E
        E        
Q  E
        E        
 E
        E        
Q  E
        E        
 E
        E        
Q  E
        E        
 E
        E        
------------------------|------------------------| ------------------------|------------------------| ------------------------|---------------------3--| --1-------1--1-------3--|--5-------5--3----------|  E
        E        
 E
        E        
 E
        E        
 E
        E        
 E
        E        
 E
        E        
 E
        E        
 E
        E        
 E
        E        
 E
        E        
 E
        E        
 E
        E        
 E
        E        
 E
        E        
 E
        E        
 E
        E        
--------------------------|--------------------------| --------------------------|--------------------------| --5-----5-----5-----5-----|--5-----5-----5-----5-----| --------------------------|-----------------------0--|  E
        E        
 E
        E        
 E
        E        
 E
        E        
 E
        E        
 E
        E        
 E
        E        
 E
        E        
 E
        E        
 E
        E        
 E
        E        
 E
        E        
 E
        E        
 E
        E        
 E
        E        
 E
        E        
--------------------------|--------------------------| --------------------------|--------------------------| --------------------------|--------------------------| --1-----1-----1-----1-----|--1-----1-----1-----1-----| Q.  E
        E        
 E
        E        
 E
        E        
 E
        E        
 E
        E        
Q.  E
        E        
 E
        E        
 E
        E        
 E
        E        
 E
        E        
------------------------|------------------------| ------------4--4--4-----|------------4--4--4-----| ---------5-----------5--|---------5-----------5--| --2---------------------|--2---------------------| Q.  E
        E        
 E
        E        
 E
        E        
 E
        E        
 E
        E        
Q.  E
        E        
 E
        E        
 E
        E        
 E
        E        
 E
        E        
------------------------|------------------------| ------------8--8--8-----|------------8--8--8-----| ---------8-----------8--|---------8-----------8--| --6---------------------|--6---------------------| Q.  E
        E        
 E
        E        
 E
        E        
 E
        E        
 E
        E        
W W ------------------------|-------------------|-------------------| ------------8--8--8-----|-------------------|-------------------| ---------8-----------8--|-------------------|-------------------| --6---------------------|--6----------------|-------------------| W W -------------------|-------------------| -------------------|-------------------| -------------------|-------------------| -------------------|-------------------|  E
        E        
 E
        E        
 E
        E        
 E
        E        
 E
        E        
 E
        E        
 E
        E        
 E
        E        
Q Q Q Q -------------------12--12--12--12--|----------------------| -----------12----------------------|----------------------| -----8g10------10------------------|--5----5--------------| -----------------------------------|------------0----0----| Q Q Q  E
        E        
 E
        E        
 E
        E        
 E
        E        
 E
        E        
 E
        E        
 E
        E        
 E
        E        
 E
        E        
 E
        E        
-----------------------|--------------------------| -----------------------|--------------------------| -----------------------|--5-----5-----5-----5-----| --1----1----1----1--1--|--------------------------|  E
        E        
 E
        E        
 E
        E        
 E
        E        
 E
        E        
 E
        E        
 E
        E        
 E
        E        
 E
        E        
 E
        E        
 E
        E        
 E
        E        
 E
        E        
 E
        E        
 E
        E        
 E
        E        
--------------------------|--------------------------| --------------------------|--------------------------| --5-----5-----5-----5-----|--------------------------| -----------------------0--|--1-----1-----1-----1-----|  E
        E        
 E
        E        
 E
        E        
 E
        E        
 E
        E        
 E
        E        
 E
        E        
 E
        E        
 E
        E        
 E
        E        
 E
        E        
 E
        E        
 E
        E        
 E
        E        
 E
        E        
 E
        E        
--------------------------|--------------------------| --------------------------|--------------------------| --------------------------|--------------------------| --1-----1-----1-----1-----|--2-----2-----2-----2-----|  E
        E        
 E
        E        
 E
        E        
 E
        E        
 E
        E        
 E
        E        
 E
        E        
 E
        E        
W --------------------------|-------------------| --------------------------|-------------------| --1-----1-----1-----1-----|--1----------------| --------------------------|-------------------|  E
        E        
 E
        E        
 E
        E        
 E
        E        
 E
        E        
 E
        E        
 E
        E        
 E
        E        
 E
        E        
 E
        E        
 E
        E        
 E
        E        
 E
        E        
 E
        E        
 E
        E        
 E
        E        
--------------------------|--------------------------| --------------------------|--------------------------| --------------------------|--------------------------| --1--1--1--1--1--1--1--1--|--1--1--1--1--1--1--1--3--|  E
        E        
 E
        E        
 E
        E        
 E
        E        
 E
        E        
 E
        E        
 E
        E        
 E
        E        
 E
        E        
 E
        E        
 E
        E        
 E
        E        
 E
        E        
 E
        E        
 E
        E        
 E
        E        
--------------------------|---------------------------| --------------------------|---------------------------| --3--3--3--3--3--3--3--3--|--3--3--3--3--3--3--3--3S--| --------------------------|---------------------------|  E
        E        
 E
        E        
 E
        E        
 E
        E        
 E
        E        
 E
        E        
 E
        E        
 E
        E        
 E
        E        
 E
        E        
 E
        E        
 E
        E        
 E
        E        
 E
        E        
 E
        E        
 E
        E        
--------------------------|---------------------------| --------------------------|---------------------------| --8--8--8--8--8--8--8--8--|--8--8--8--8--8--8--8--10--| --------------------------|---------------------------|  E
        E        
 E
        E        
 E
        E        
 E
        E        
 E
        E        
 E
        E        
 E
        E        
 E
        E        
 E
        E        
 E
        E        
 E
        E        
 E
        E        
 E
        E        
 E
        E        
 E
        E        
 E
        E        
----------------------------------|----------------------------------| --10--10--10--10--10--10--10--10--|--10--10--10--10--10--10--10------| ----------------------------------|------------------------------10--| ----------------------------------|----------------------------------| W W --------------------|-------------------|| --10----------------|--L----------------|| --------------------|-------------------|| --------------------|-------------------|| Si necesitas una tab en especial escríbeme... http://www.myspace.com/alejandrolauyola Duration Legend --------------- W - whole H - half Q - quarter E
        E        
 - 8th S - 16th T - 32nd X - 64th . - note dotted |-n-| - n-tuplets Tablature Legend ---------------- L - tied note x - dead note g - grace note (n) - ghost note > - accentuded note NH - natural harmonic AH - artificial harmonic TH - tapped harmonic SH - semi harmonic PH - pitch harmonic h - hammer on p - pull off b - bend br - bendRelease pb - preBend pbr - preBendRelease brb - bendReleaseBend n/ - tremolo bar dip n - tremolo bar dive -/n - tremolo bar Release up /n - tremolo bar inverted dip /n - tremolo bar return -n - tremolo bar Release down S - shift slide s - legato slide / - slide into from below or out of upwards - slide into from above or out of downwards ~ - vibrato W - wide vibrato tr - trill TP - tremolo picking T - tapping S - slap P - pop < - fade in ^ - brush up v - brush down

 A
        A        
leks Syntek

Este fichero es trabajo propio de su transcriptor y representa su interpretación personal de la canción. El material contenido en esta página es para exclusivo uso privado, por lo que se prohibe su reproducción o retransmisión, así como su uso para fines comerciales.