Loca (TAB) (3)


solo:

h = hammer-on                   afinacion estandar
p = pull-off
b = full bend
<> = harmonico (F)
vvv = vibrato

|--------------------------------------|---------13----13h16h18p
|--vv-vv-------------------------------|--vv-vv-----16-----------
|--8b-10b-10-8----8--------------------|--8b-10b-----------------
|--------------10---10-8----8-10-------|-------------------------
|------------------------11------8-<8>-|-------------------------
|--------------------------------------|-------------------------

16h18p16p13h16h18p16h18p16p13----vvv---|
------------------------------16-16b---|
---------------------------------------|
---------------------------------------|
---------------------------------------|
---------------------------------------|

NOTA:
1.- los vibratos (puestos arriba de cada nota) son despues de los
bendings y son muy leves
2.- el harmonico si lo tocan en una guitarra de 3 pastillas
(como la mia)lo pueden encontar donde esta la segunda pastilla
3.- la parte de hamer-on y pull-offs es demasiado rapida asi que
tengan cuidado al ejecutarla.

Espero que les guste :D

 A
        A        
leks Syntek

Este fichero es trabajo propio de su transcriptor y representa su interpretación personal de la canción. El material contenido en esta página es para exclusivo uso privado, por lo que se prohibe su reproducción o retransmisión, así como su uso para fines comerciales.