Intocable (BAJ) (6)


Si necesitas una tab en especial escríbeme...

http://www.myspace.com/alejandrolauyola

             Q.     E
        E        
Q.  E
        E        
Q.  E
        E        
 E
        E        
S S  E
        E        
 E
        E        
G||-------|----------------------|----------------------------| D||-------|----------------------|---------------------3h-----| A||-------|--6------6--5------5--|---------------1h-3p-----1--| E||-------|----------------------|--3------3--1---------------| Q.  E
        E        
Q.  E
        E        
Q.  E
        E        
 E
        E        
S S  E
        E        
 E
        E        
----------------------|----------------------------|-------|-------| ----------------------|---------------------3h-----|-------|-------| --6------6--5------5--|---------------1h-3p-----1--|-------|-------| ----------------------|--3------3--1---------------|-------|-------| Q.  E
        E        
Q. S S Q.  E
        E        
Q.  E
        E        
-------|-------|------------------------|------------7------7--| -------|-------|--8------8--7------7h-8-|--5------5------------| -------|-------|------------------------|----------------------| -------|-------|------------------------|----------------------| Q.  E
        E        
Q.  E
        E        
Q.  E
        E        
Q. S S ----------------------|-------------------------| ----------------------|-------------------------| --6------6--6------6--|--8------8--8------------| ----------------------|-------------------8h-10-|  E
        E        
 E
        E        
 E
        E        
 E
        E        
 E
        E        
 E
        E        
Q Q.  E
        E        
 E
        E        
 E
        E        
S S E
        E        
-------------------------|----------------------------| -------------------------|------------------------8--| --8--8--8--8--8--8--8----|--6---------8--8--8h-10-----| -------------------------|---------8------------------| Q.  E
        E        
Q Q Q.  E
        E        
 E
        E        
 E
        E        
S S E
        E        
----------------------|----------------------------| ----------------------|------------------------8--| ----------------------|--6---------8--8--8h-10-----| --6------6--5----5----|---------8------------------| Q.  E
        E        
Q Q  E
        E        
 E
        E        
 E
        E        
 E
        E        
 E
        E        
 E
        E        
 E
        E        
 E
        E        
----------------------|--------------------------| ----------------------|--------------------------| ----------------------|--------------------------| --6------6--5----5----|--3--3--3--3--2--2--2--2--|  E
        E        
 E
        E        
 E
        E        
 E
        E        
 E
        E        
 E
        E        
 E
        E        
 E
        E        
Q Q Q. S S ---------------------------|-----------------------| ---------------------------|--5----3----2------2-2-| ---------------------------|-----------------------| --3--3--3--3--2--2--2--2/--|-----------------------| Q Q Q. S S H Q.  E
        E        
Q.  E
        E        
--5----5---------------|-----------|----------------------| -------------1------3-5-|--3--------|----------------------| ------------------------|-----------|--6------6--5------5--| ------------------------|-----------|----------------------| Q.  E
        E        
 E
        E        
S S  E
        E        
 E
        E        
Q.  E
        E        
Q.  E
        E        
----------------------------|----------------------| ---------------------3h-----|----------------------| ---------------1h-3p-----1--|--6------6--5------5--| --3------3--1---------------|----------------------| Q.  E
        E        
 E
        E        
S S  E
        E        
 E
        E        
----------------------------|-----------|-----------|-----------| ---------------------3h-----|-----------|-----------|-----------| ---------------1h-3p-----1--|-----------|-----------|-----------| --3------3--1---------------|-----------|-----------|-----------| Q.  E
        E        
Q. S S Q.  E
        E        
Q.  E
        E        
-----------|------------------------|------------7------7--| -----------|--8------8--7------7h-8-|--5------5------------| -----------|------------------------|----------------------| -----------|------------------------|----------------------| Q.  E
        E        
Q.  E
        E        
Q.  E
        E        
Q. S S ----------------------|-------------------------| ----------------------|-------------------------| --6------6--6------6--|--8------8--8------------| ----------------------|-------------------8h-10-|  E
        E        
 E
        E        
 E
        E        
 E
        E        
 E
        E        
 E
        E        
Q Q.  E
        E        
 E
        E        
 E
        E        
S S E
        E        
-------------------------|----------------------------| -------------------------|------------------------8--| --8--8--8--8--8--8--8----|--6---------8--8--8h-10-----| -------------------------|---------8------------------| Q.  E
        E        
Q Q Q.  E
        E        
 E
        E        
 E
        E        
S S E
        E        
----------------------|----------------------------| ----------------------|------------------------8--| ----------------------|--6---------8--8--8h-10-----| --6------6--5----5----|---------8------------------| Q.  E
        E        
Q Q  E
        E        
 E
        E        
 E
        E        
 E
        E        
 E
        E        
 E
        E        
 E
        E        
 E
        E        
----------------------|--------------------------| ----------------------|--------------------------| ----------------------|--------------------------| --6------6--5----5----|--3--3--3--3--2--2--2--2--|  E
        E        
 E
        E        
 E
        E        
 E
        E        
 E
        E        
 E
        E        
 E
        E        
 E
        E        
Q Q Q. S S ---------------------------|-----------------------| ---------------------------|--5----3----2------2-2-| ---------------------------|-----------------------| --3--3--3--3--2--2--2--2/--|-----------------------| Q Q Q. S S H  E
        E        
 E
        E        
 E
        E        
 E
        E        
 E
        E        
 E
        E        
 E
        E        
 E
        E        
--5----5---------------|-----------|--------------------------| -------------1------3-5-|--3--------|--------------------------| ------------------------|-----------|--6--6--6--6--5--5--5--5--| ------------------------|-----------|--------------------------|  E
        E        
 E
        E        
 E
        E        
 E
        E        
 E
        E        
S S E
        E        
 E
        E        
 E
        E        
 E
        E        
 E
        E        
 E
        E        
 E
        E        
 E
        E        
 E
        E        
 E
        E        
---------------------3-----|--------------------------| --5--5--5--5--3--3-5----5--|--------------------------| ---------------------------|--6--6--6--6--5--5--5--5--| ---------------------------|--------------------------|  E
        E        
 E
        E        
 E
        E        
 E
        E        
 E
        E        
 E
        E        
 E
        E        
 E
        E        
Q.  E
        E        
Q Q --------------------------|-----|----------------------| --5--5--5--5--3--3--3--3--|-----|----------------------| --------------------------|-----|----------------------| --------------------------|-----|--6------6--5----5----| Q.  E
        E        
 E
        E        
 E
        E        
S S E
        E        
Q.  E
        E        
Q Q ----------------------------|----------------------| ------------------------8--|----------------------| --6---------8--8--8h-10-----|----------------------| ---------8------------------|--6------6--5----5----|  E
        E        
 E
        E        
 E
        E        
 E
        E        
 E
        E        
 E
        E        
 E
        E        
 E
        E        
 E
        E        
 E
        E        
 E
        E        
 E
        E        
 E
        E        
 E
        E        
 E
        E        
 E
        E        
--------------------------|---------------------------| --------------------------|---------------------------| --------------------------|---------------------------| --3--3--3--3--2--2--2--2--|--3--3--3--3--2--2--2--2/--| Q Q H H H ---------------------|--------------------|-----------| --5----3----2--------|--L-----------------|-----------| ---------------------|--------------------|-----------| ---------------------|--------------------|-----------| Q.  E
        E        
Q.  E
        E        
Q.  E
        E        
 E
        E        
S S  E
        E        
 E
        E        
----------------------|----------------------------| ----------------------|---------------------3h-----| --6------6--5------5--|---------------1h-3p-----1--| ----------------------|--3------3--1---------------| Q.  E
        E        
Q.  E
        E        
Q.  E
        E        
 E
        E        
S S  E
        E        
 E
        E        
----------------------|----------------------------| ----------------------|---------------------3h-----| --6------6--5------5--|---------------1h-3p-----1--| ----------------------|--3------3--1---------------| Q.  E
        E        
Q.  E
        E        
Q.  E
        E        
 E
        E        
S S  E
        E        
 E
        E        
----------------------|----------------------------| ----------------------|---------------------3h-----| --6------6--5------5--|---------------1h-3p-----1--| ----------------------|--3------3--1---------------|  E
        E        
 E
        E        
 E
        E        
 E
        E        
 E
        E        
 E
        E        
 E
        E        
 E
        E        
 E
        E        
 E
        E        
 E
        E        
 E
        E        
 E
        E        
 E
        E        
 E
        E        
 E
        E        
--------------------------|--------------------------| --------------------------|--------------------------| --6--6--6--6--5--5--5--5--|--4--4--4--4--3--3--3--3--| --------------------------|--------------------------| W W W -------------------|-------------------|-------------------| -------------------|-------------------|-------------------| --1----------------|--L----------------|--L----------------| -------------------|-------------------|-------------------| -------------------|| -------------------|| -------------------|| -------------------|| Si necesitas una tab en especial escríbeme... http://www.myspace.com/alejandrolauyola Duration Legend --------------- W - whole H - half Q - quarter E
        E        
 - 8th S - 16th T - 32nd X - 64th . - note dotted |-n-| - n-tuplets Tablature Legend ---------------- L - tied note x - dead note g - grace note (n) - ghost note > - accentuded note NH - natural harmonic AH - artificial harmonic TH - tapped harmonic SH - semi harmonic PH - pitch harmonic h - hammer on p - pull off b - bend br - bendRelease pb - preBend pbr - preBendRelease brb - bendReleaseBend n/ - tremolo bar dip n - tremolo bar dive -/n - tremolo bar Release up /n - tremolo bar inverted dip /n - tremolo bar return -n - tremolo bar Release down S - shift slide s - legato slide / - slide into from below or out of upwards - slide into from above or out of downwards ~ - vibrato W - wide vibrato tr - trill TP - tremolo picking T - tapping S - slap P - pop < - fade in ^ - brush up v - brush down

 A
        A        
leks Syntek

Este fichero es trabajo propio de su transcriptor y representa su interpretación personal de la canción. El material contenido en esta página es para exclusivo uso privado, por lo que se prohibe su reproducción o retransmisión, así como su uso para fines comerciales.