Hasta el fín del mundo (BAJ) (2)


si necesitas una tab en especial escríbeme...
http://www.myspace.com/alejandrolauyola


Bajo
G||-------|-------|-------|-------|-------|-------|-------|-------|
D||-------|-------|-------|-------|-------|-------|-------|-------|
A||-------|-------|-------|-------|-------|-------|-------|-------|
E||-------|-------|-------|-------|-------|-------|-------|-------|


                           S
                  H        H           W
-------|-------|--------------------|-------------------|
-------|-------|-----------3--------|--L----------------|
-------|-------|--------------------|-------------------|
-------|-------|-----------1--------|--L----------------|


  Q.     E
        E        
H Q.  E
        E        
H Q.  E
        E        
H ---------------------|---------------------|---------------------| ---------------------|---------------------|---------------------| --3------3--3--------|--1------1--1--------|---------------------| ---------------------|---------------------|--1------1--1--------| Q.  E
        E        
H Q.  E
        E        
H Q.  E
        E        
H ---------------------|---------------------|---------------------| ---------------------|---------------------|---------------------| --5------5--5--------|--3------3--3--------|--1------1--1--------| ---------------------|---------------------|---------------------| Q.  E
        E        
H Q.  E
        E        
H ---------------------|-----------|---------------------| ---------------------|-----------|---------------------| ---------------------|-----------|--3------3--3--------| --1------1--1--------|-----------|---------------------| Q.  E
        E        
H Q.  E
        E        
H Q.  E
        E        
H ---------------------|---------------------|---------------------| ---------------------|---------------------|---------------------| --1------1--1--------|---------------------|--5------5--5--------| ---------------------|--1------1--1--------|---------------------| Q.  E
        E        
H Q.  E
        E        
H Q.  E
        E        
H ---------------------|---------------------|---------------------| ---------------------|---------------------|---------------------| --3------3--3--------|--1------1--1--------|---------------------| ---------------------|---------------------|--1------1--1--------| Q.  E
        E        
H Q.  E
        E        
 E
        E        
Q  E
        E        
---------------------||------------------------| ---------------------||*-----------------------| --5------5--5--------||*-----------------------| ---------------------||---1------1--1--1----3--| Q.  E
        E        
 E
        E        
 E
        E        
Q Q.  E
        E        
 E
        E        
Q  E
        E        
-----------------------|-----------------------| -----------------------|-----------------------| --6------6--6--6--5----|-----------------------| -----------------------|--3------3--3--3----3--| Q.  E
        E        
 E
        E        
 E
        E        
 E
        E        
 E
        E        
Q.  E
        E        
 E
        E        
Q  E
        E        
-------------------------||------------------------| ------------------------*||*-----------------------| --1------1--0--1--0--1--*||*-----------------------| -------------------------||---1------1--1--1----3--| Q.  E
        E        
 E
        E        
 E
        E        
Q Q.  E
        E        
 E
        E        
Q  E
        E        
-----------------------|-----------------------| -----------------------|-----------------------| --6------6--6--6--5----|-----------------------| -----------------------|--3------3--3--3----3--| Q.  E
        E        
 E
        E        
 E
        E        
 E
        E        
 E
        E        
Q.  E
        E        
 E
        E        
 E
        E        
 E
        E        
 E
        E        
-------------------------||------------------------| ------------------------*||------------------------| --1------1--0--1--0--1--*||--1------1--0--1--0--1--| -------------------------||------------------------| Q.  E
        E        
H Q.  E
        E        
H Q.  E
        E        
H ---------------------|---------------------|---------------------| ---------------------|---------------------|---------------------| --3------3--3--------|--1------1--1--------|---------------------| ---------------------|---------------------|--1------1--1--------| Q.  E
        E        
H Q.  E
        E        
H Q.  E
        E        
H ---------------------|---------------------|---------------------| ---------------------|---------------------|---------------------| --5------5--5--------|--3------3--3--------|--1------1--1--------| ---------------------|---------------------|---------------------| Q.  E
        E        
H Q.  E
        E        
H ---------------------|-----------|---------------------| ---------------------|-----------|---------------------| ---------------------|-----------|--3------3--3--------| --1------1--1--------|-----------|---------------------| Q.  E
        E        
H Q.  E
        E        
H Q.  E
        E        
H ---------------------|---------------------|---------------------| ---------------------|---------------------|---------------------| --1------1--1--------|---------------------|--5------5--5--------| ---------------------|--1------1--1--------|---------------------| Q.  E
        E        
H Q.  E
        E        
H Q.  E
        E        
H ---------------------|---------------------|---------------------| ---------------------|---------------------|---------------------| --3------3--3--------|--1------1--1--------|---------------------| ---------------------|---------------------|--1------1--1--------| Q.  E
        E        
H Q.  E
        E        
 E
        E        
Q  E
        E        
---------------------||------------------------| ---------------------||*-----------------------| --5------5--5--------||*-----------------------| ---------------------||---1------1--1--1----3--| Q.  E
        E        
 E
        E        
 E
        E        
Q Q.  E
        E        
 E
        E        
Q  E
        E        
-----------------------|-----------------------| -----------------------|-----------------------| --6------6--6--6--5----|-----------------------| -----------------------|--3------3--3--3----3--| Q.  E
        E        
 E
        E        
 E
        E        
 E
        E        
 E
        E        
Q.  E
        E        
 E
        E        
Q  E
        E        
-------------------------||------------------------| ------------------------*||*-----------------------| --1------1--0--1--0--1--*||*-----------------------| -------------------------||---1------1--1--1----3--| Q.  E
        E        
 E
        E        
 E
        E        
Q Q.  E
        E        
 E
        E        
Q  E
        E        
-----------------------|-----------------------| -----------------------|-----------------------| --6------6--6--6--5----|-----------------------| -----------------------|--3------3--3--3----3--| Q.  E
        E        
 E
        E        
 E
        E        
 E
        E        
 E
        E        
Q.  E
        E        
 E
        E        
 E
        E        
 E
        E        
 E
        E        
-------------------------||------------------------| ------------------------*||------------------------| --1------1--0--1--0--1--*||--1------1--0--1--0--1--| -------------------------||------------------------|  E
        E        
 E
        E        
 E
        E        
 E
        E        
 E
        E        
 E
        E        
 E
        E        
 E
        E        
 E
        E        
 E
        E        
 E
        E        
 E
        E        
 E
        E        
 E
        E        
 E
        E        
 E
        E        
|---------------------------|--------------------------| |*--------------------------|--------------------------| |*--5--5--5--5--5--5--5--5--|--5--5--5--5--5--5--5--5--| |---------------------------|--------------------------|  E
        E        
 E
        E        
 E
        E        
 E
        E        
 E
        E        
 E
        E        
 E
        E        
 E
        E        
 E
        E        
 E
        E        
 E
        E        
 E
        E        
 E
        E        
 E
        E        
 E
        E        
 E
        E        
--------------------------|---------------------------|| --------------------------|--------------------------*|| --1--1--1--1--1--1--1--1--|--1--1--1--1--1--1--1--1--*|| --------------------------|---------------------------||  E
        E        
 E
        E        
 E
        E        
 E
        E        
 E
        E        
 E
        E        
 E
        E        
 E
        E        
 E
        E        
 E
        E        
 E
        E        
 E
        E        
 E
        E        
 E
        E        
 E
        E        
 E
        E        
--------------------------|--------------------------| --------------------------|--------------------------| --3--3--3--3--3--3--3--3--|--------------------------| --------------------------|--3--3--3--3--3--3--3--3--|  E
        E        
 E
        E        
 E
        E        
 E
        E        
 E
        E        
 E
        E        
 E
        E        
 E
        E        
 E
        E        
 E
        E        
 E
        E        
 E
        E        
 E
        E        
 E
        E        
 E
        E        
 E
        E        
--------------------------|--------------------------| --------------------------|--------------------------| --1--1--1--1--1--1--1--1--|--1--1--1--1--1--1--1--1--| --------------------------|--------------------------|  E
        E        
 E
        E        
 E
        E        
 E
        E        
 E
        E        
 E
        E        
 E
        E        
 E
        E        
 E
        E        
 E
        E        
 E
        E        
 E
        E        
 E
        E        
 E
        E        
 E
        E        
 E
        E        
--------------------------|--------------------------| --------------------------|--------------------------| --3--3--3--3--3--3--3--3--|--------------------------| --------------------------|--3--3--3--3--3--3--3--3--|  E
        E        
 E
        E        
 E
        E        
 E
        E        
 E
        E        
 E
        E        
 E
        E        
 E
        E        
 E
        E        
 E
        E        
 E
        E        
 E
        E        
 E
        E        
 E
        E        
 E
        E        
 E
        E        
--------------------------|--------------------------| --------------------------|--------------------------| --1--1--1--1--1--1--1--1--|--3--3--3--3--3--3--3--3--| --------------------------|--------------------------| H H |--------------------|-----|-----|------||----------------------| |*-------------------|-----|-----|-----*||----------------------| |*-------------------|-----|-----|-----*||----------------------| |--------------------|-----|-----|------||-----------13--------| Q.  E
        E        
 E
        E        
Q  E
        E        
Q.  E
        E        
 E
        E        
 E
        E        
Q |------------------------|-----------------------| |*-----------------------|-----------------------| |*-----------------------|--6------6--6--6--5----| |---1------1--1--1----3--|-----------------------| Q.  E
        E        
 E
        E        
Q  E
        E        
Q.  E
        E        
 E
        E        
 E
        E        
 E
        E        
 E
        E        
-----------------------|-------------------------|| -----------------------|------------------------*|| -----------------------|--1------1--0--1--0--1--*|| --3------3--3--3----3--|-------------------------|| Q.  E
        E        
 E
        E        
Q  E
        E        
Q.  E
        E        
 E
        E        
 E
        E        
Q ------------------------|-----------------------| *-----------------------|-----------------------| *-----------------------|--6------6--6--6--5----| ---1------1--1--1----3--|-----------------------| Q.  E
        E        
 E
        E        
Q  E
        E        
Q.  E
        E        
 E
        E        
 E
        E        
 E
        E        
 E
        E        
-----------------------|-------------------------|| -----------------------|------------------------*|| -----------------------|--1------1--0--1--0--1--*|| --3------3--3--3----3--|-------------------------|| Q.  E
        E        
 E
        E        
 E
        E        
 E
        E        
 E
        E        
Q.  E
        E        
 E
        E        
Q  E
        E        
------------------------||------------------------| ------------------------||*-----------------------| --1------1--0--1--0--1--||*-----------------------| ------------------------||---1------1--1--1----3--| Q.  E
        E        
 E
        E        
 E
        E        
Q Q.  E
        E        
 E
        E        
Q  E
        E        
-----------------------|-----------------------| -----------------------|-----------------------| --6------6--6--6--5----|-----------------------| -----------------------|--3------3--3--3----3--| Q.  E
        E        
 E
        E        
 E
        E        
 E
        E        
 E
        E        
Q.  E
        E        
 E
        E        
Q  E
        E        
-------------------------||------------------------| ------------------------*||*-----------------------| --1------1--0--1--0--1--*||*-----------------------| -------------------------||---1------1--1--1----3--| Q.  E
        E        
 E
        E        
 E
        E        
Q Q.  E
        E        
 E
        E        
Q  E
        E        
-----------------------|-----------------------| -----------------------|-----------------------| --6------6--6--6--5----|-----------------------| -----------------------|--3------3--3--3----3--| Q.  E
        E        
 E
        E        
 E
        E        
 E
        E        
 E
        E        
Q.  E
        E        
 E
        E        
 E
        E        
 E
        E        
 E
        E        
-------------------------||------------------------|-----|| ------------------------*||------------------------|-----|| --1------1--0--1--0--1--*||--1------1--0--1--0--1--|-----|| -------------------------||------------------------|-----|| si necesitas una tab en especial escríbeme... http://www.myspace.com/alejandrolauyola Duration Legend --------------- W - whole H - half Q - quarter E
        E        
 - 8th S - 16th T - 32nd X - 64th . - note dotted |-n-| - n-tuplets Tablature Legend ---------------- L - tied note x - dead note g - grace note (n) - ghost note > - accentuded note NH - natural harmonic AH - artificial harmonic TH - tapped harmonic SH - semi harmonic PH - pitch harmonic h - hammer on p - pull off b - bend br - bendRelease pb - preBend pbr - preBendRelease brb - bendReleaseBend n/ - tremolo bar dip n - tremolo bar dive -/n - tremolo bar Release up /n - tremolo bar inverted dip /n - tremolo bar return -n - tremolo bar Release down S - shift slide s - legato slide / - slide into from below or out of upwards - slide into from above or out of downwards ~ - vibrato W - wide vibrato tr - trill TP - tremolo picking T - tapping S - slap P - pop < - fade in ^ - brush up v - brush down

 A
        A        
leks Syntek

Este fichero es trabajo propio de su transcriptor y representa su interpretación personal de la canción. El material contenido en esta página es para exclusivo uso privado, por lo que se prohibe su reproducción o retransmisión, así como su uso para fines comerciales.