El camino (BAJ) (2)


verso: 
4:------4------4-----4-----4-                       ---------- 
3:-2-2----2-2---2-2---2-2---       7 times          --2-4-6-- 
2:----------------------------                       ---------- 
1:----------------------------                       ---------- 
 
 
este es un cambio en la segunda vez del  
verso: 
 
     no tu no te olvidaras 
4:-2-4-------------------------- 
3:------2-4------------------4-- 
2:-----------2-4-6-4-2-4-2----- 
1:------------------------------- 
 
                                        de mi 
4:------4-4------4-4------4-4---------------- 
3:-2-2------2-2------2-2--------------------- 
2:------------------------------2-2-0-4-2-0-- 
1:--------------------------------------------- 
 
 
yo voy a hacerte recordar 
 
4:------4-4------4-4-                  ----------------- 
3:-2-2------2-2------  7 times           --4-2-0-4-2-0--- 
2:--------------------                  ----------------- 
1:--------------------                  ----------------- 
 
 
eso es todo amigos (como dice el sabio bugs bunny) 
y esta rola va para toda la gente que no encuentra su  
verdadero camino en la vida y creen que el ser fuerte, 
agresivo,estupido,presumido,altanero y idiota van  
a ser mejor que todos lo demas y ademas piensan 
que los lujos es todo, y ademas les gusta humillar a 
 la demas gente (ponganse las pilas). 
saludos de (jcam) 
..............................signos...................................... 
.............................................................................

 A
        A        
leks Syntek

Este fichero es trabajo propio de su transcriptor y representa su interpretación personal de la canción. El material contenido en esta página es para exclusivo uso privado, por lo que se prohibe su reproducción o retransmisión, así como su uso para fines comerciales.