Despues de tí (BAJ) (3)


Ahi les va ilo yo
pero que sea un buen rap¡¡
Intro
00:10
E|-------------3--|
A|----------------|
D|--5-7---7--5----|
G|------5---------|

E|----3---|---0---|-------|--------------|
A|--3--33-|-0--00-|---2---|---------3-5--|
D|--------|-------|-2--22-|-5-5/7-5------|
G|--------|-------|-------|--------------|

Yo no me arrepiento
E|----3---|---0---|-0--00-|-3---5-3--3--|
A|--3--33-|-0--00-|-------|---5-----3---|
D|--------|-------|-------|-------------|
G|--------|-------|-------|-------------|

Entre tantas cosas
E|----3---|------0----|---7-0-|-3-033--|
A|--3--33-|-3/12---00-|-7--7--|--------|
D|--------|-----------|-------|--------|
G|--------|-----------|-------|--------|

Que es lo que pasa
E|--------------------|-----|-3-033---|-3----3-5---|
A|--5-------------5---|-700-|-------5-|--3-5----3--|
D|----5/7-----7-5---7-|-----|------5--|---5--------|
G|--------5/7---------|-----|---------|------------|

Como entregarme
E|---------------|-------|-3-3------3--|
A|--5------------|----00-|----235--5---|
D|---3/5---------|---2---|-------5-----|
G|------5/10-9-7-|-2-----|-------------|

Despues de ti ya no hay
E|----3-----|---0---|----700-|-3---3----|
A|--3--33-3-|-0--00-|-57-----|----5-23--|
D|----------|-------|--------|---5------|
G|----------|-------|--------|----------|

despues de ti es el olvido
E|----3-----|------------------|---700-|-3-33--|
A|--3--33-3-|-3/12-------14/12-|-7-----|-------|
D|----------|---------14-------|-------|-------|
G|----------|------14----------|-------|-------|

Como voy a llenar
E|----5---|-------|-3-33-3--------3--|
A|--5--55-|-0--00-|-----3-------5----|
D|--------|-------|-------5/7/5------|
G|--------|-------|------------------|

E|----3---|---0---|-0--00-|-3-----------|
A|--3--33-|-0--00-|-------|---3/-10-----|
D|--------|-------|-------|-------------|
G|--------|-------|-------|---------12--|

Dejare que el tiempo
E|----3---|---0---|-0--00-|-3---5-3--3--|
A|--3--33-|-0--00-|-------|---5-----3---|
D|--------|-------|-------|-------------|
G|--------|-------|-------|-------------|

Cuando el cielo
E|----3------|---0---|-0--00-|-3---5-3--3--|
A|--3--3/5-3-|-0--00-|-------|---5-----3---|
D|-----------|-------|-------|-------------|
G|-----------|-------|-------|-------------|

Que es lo que pasa
E|----5---|---0---|-3-33-----|
A|--5--55-|-0--00-|-----2-3--|
D|--------|-------|----------|
G|--------|-------|----------|

Como entregarme
E|---------------|-------|-3-3------3-|---------3-|
A|--5------------|----00-|----235--5--|-------5---|
D|---3/5---------|---2---|-------5----|-5/7/5-----|
G|------5/10-9-7-|-2-----|------------|-----------|

Despues de ti ya no hay
E|----3-----|---0---|----700-|-3---3----|
A|--3--33-3-|-0--00-|-57-----|----5-23--|
D|----------|-------|--------|---5------|
G|----------|-------|--------|----------|

despues de ti es el olvido
E|----3------|------------------------|-0--00-|-3-33------|
A|--3--3/5-3-|-3/12-------------14/12-|-------|------3-5--|
D|-----------|------14----14-14-------|-------|-----------|
G|-----------|---------14-------------|-------|-----------|

De vez en cuando
E|----5---|---0---|-3-33--|
A|--5--55-|-0--00-|-------|x2
D|--------|-------|-------|
G|--------|-------|-------|

Como vivir despues de ti
E|----3---|---0---|-0--00-|-3------------|
A|--3--33-|-0--00-|-------|---------3-5--|
D|--------|-------|-------|---5/7-5------|
G|--------|-------|-------|--------------|

Como vivir despues de ti
E|----3-3-----|-----------------------|-0--00-|-3------------|
A|--3--3-3----|-0-12------------14/12-|-------|---------3-5--|
D|--------3-5-|------14----14-14------|-------|---5/7-5------|
G|------------|---------14------------|-------|--------------|

Como vivir despues de ti
E|----3---|----------|-0--00-|-3------------|
A|--3--33-|-0-/12-12-|-------|---------3-5--|
D|--------|----------|-------|---5/7-5------|
G|--------|----------|-------|--------------|

att. miauricio gatolar

 A
        A        
lejandro Lerner

Este fichero es trabajo propio de su transcriptor y representa su interpretación personal de la canción. El material contenido en esta página es para exclusivo uso privado, por lo que se prohibe su reproducción o retransmisión, así como su uso para fines comerciales.



Buscar canción en YouTube Buscar cover en YouTube


Más canciones