Dicen (TAB) (3)


A
        A        
 veces en las estrofas pueden hacerse rasgados los acordes en lugar de utilizar la tablatura que les pongo. Para el espacio que hay que llenar entre cada coro y la siguiente estrofa pueden rasgarse los acordes de la introducción. Intro  G
        G        
 D/F#
      D/F#      
 C9
       C9       
 D/F#
      D/F#      
 G
        G        
 D/F#
      D/F#      
 C7
       C7       
majD/F#
      D/F#      
  G
        G        
 D/F#
      D/F#      
 C7
       C7       
majD/F#
      D/F#      
   E
        E        
|--------------------------------------------------------------|  B
        B        
|-3--3-3--3-3--3-3--3--0--0-0--0-0--0-0--0--0--0-0--0-0--0-0--0|  G
        G        
|---0----2----0----2-----0----2----0----2-----0----2----0----2-|  D
        D        
|--0----0----2----0-----0----0----2----0-----0----0----2----0--|  A
        A        
|-----------3--------------------3--------------------3--------|  E
        E        
|-3----2---------2-----3----2---------2-----3----2---------2---| Primeros dos versos de cada estrofa  G
        G        
 D/F#
      D/F#      
Em
       Em       
  Em/D
      Em/D      
 C
        C        
G/B
       G/B       
 Am
       Am       
  D7
       D7       
 E
        E        
|----------------------------02-3-|  B
        B        
|-----------0---0-------3---1--0-0|  G
        G        
|---0---2--0-0-0-0--0--0-0-2------|  D
        D        
|--0-0-0-02---0----2-2--------0---|  A
        A        
|-----------------3---2---0-------|  E
        E        
|-3---2---------------------------| Segundos dos versos de cada estrofa  G
        G        
 D/F#
      D/F#      
Em
       Em       
  Em/D
      Em/D      
 C
        C        
G/B
       G/B       
 Am
       Am       
  D/F#
      D/F#      
 E
        E        
|----------------------------0----|  B
        B        
|-----------0---0-------3---1-3--3|  G
        G        
|---0---2--0-0-0-0--0--0-0-2----2-|  D
        D        
|--0-0-0-02---0----2-2---------0--|  A
        A        
|-----------------3---2---0-------|  E
        E        
|-3---2-----------------------2---| Coro Am
       Am       
  B7
       B7       
  Em
       Em       
   D/F#
      D/F#      
 C
        C        
 C
        C        
G/B
       G/B       
 Am
       Am       
  Am/G
      Am/G      
 D/F#
      D/F#      
 G
        G        
(Intro)  E
        E        
|--------2-3-2-0h2p0-------------------------------------------------|  B
        B        
|---1---0---0-0------0--3-3--1-1-1-0h1p0------1---3---1---1---3-1--1-|  G
        G        
|--2---2------------0-0---2----0---0----2p0---0---0---2---2---2-2--2-|  D
        D        
|----21----2---2---------0-0--2-2-2----------2---0---2---2---0-0--0--|  A
        A        
|-0--------------------------3---3----------3---2---0----------------|  E
        E        
|-----------------------2-------------------------------3---2--------| G
        G        
   D/F#
      D/F#      
Em
       Em       
  Dicen que ando por ahí  Em/D
      Em/D      
 C
        C        
G/B
       G/B       
  Am
       Am       
   D7
       D7       
retando al porvenir, sin derecho G
        G        
   D/F#
      D/F#      
Em
       Em       
  por cada sol un corazón  Em/D
      Em/D      
 C
        C        
G/B
       G/B       
  Am
       Am       
   D/F#
      D/F#      
me robo y la ilusión, compro y vendo. Am
       Am       
  B7
       B7       
  Em
       Em       
  Dicen que loco me volví D/F#
      D/F#      
   C
        C        
que ya no queda mas de mí C
        C        
  G/B
       G/B       
  Am
       Am       
  dicen las lenguas creativas  Am/G
      Am/G      
 D/F#
      D/F#      
 G
        G        
(Intro) cosas diverti das. Dicen que rompo la hermandad que vivo a la mitad este canto juran que el sueño taicioné por lo que ayer soñé entre tantos. Dicen que soy de lo mejor cuando les gana la pasión. Dicen y dicen y algunos hasta me maldicen. Dicen que yo me la robé no saben que ella fue siempre mía otros incluso en su obsesión subastan la inversión de mi hombría. Rezan por que en mi distracción pierda la musa en un avión. Dicen que soy un meloso y hasta peligroso. Dicen que un día pagaré con sangre por lo que no me callo dicen que el cambio no será que falta por robar lo soñado. Dicen que ya me cansaré que tiene precio este querer. Dicen y dicen y algunos hasta me maldicen.

 A
        A        
lejandro F
        F        
ilio

Este fichero es trabajo propio de su transcriptor y representa su interpretación personal de la canción. El material contenido en esta página es para exclusivo uso privado, por lo que se prohibe su reproducción o retransmisión, así como su uso para fines comerciales.



Buscar canción en YouTube Buscar cover en YouTube


Más canciones