Como Quien Pierde una Estrella (TAB) (3)


hola 
 
es solo el requinto de el principio 
 
E--------------------------------------------------------- 
A--------------------------------------------------------- 
D--------------------------------------------------------- 
g--------------------------------------------------------- 
b-10-10-13-10-10-10-13---8-10-12-10-8-10-12--------------- 
e--8-12-12-12--8-12-12---7-8--10--8-7-8--10--------------- 
 
E------------------------------------------------------- 
A------------------------------------------------------- 
D------------------------------------------------------- 
g------------------------------------------------------- 
b-6-8-10-8-6-8-10---5-7-9-7-5-7-9-10------10------------ 
e-5-7-8--7-5-7-8----4-5-7-5-4-5-7----7-----8------------ 
                                         /----- se ripite 
 
 
el final es asi 
 
E---------------------------------5--------------------- 
A---------------------------------7--------------------- 
D---------------------------------7--------------------- 
g---------------------------------5--------------------- 
b--10-12-13--10-12-13--10-12-13---5--------------------- 
e--8--10-12--8--10-12--8--10-12---5--------------------- 
 
Hata luego 
 
espero que les guste.

 A
        A        
lejandro F
        F        
ernandez

Este fichero es trabajo propio de su transcriptor y representa su interpretación personal de la canción. El material contenido en esta página es para exclusivo uso privado, por lo que se prohibe su reproducción o retransmisión, así como su uso para fines comerciales.



Buscar canción en YouTube Buscar cover en YouTube


Más canciones