Como Quien Pierde una Estrella (BAJ) (2)


D-------------------------------3-------3-----2-3---3-2-3-0 
G-2-4-5-4-2-4-5--0-1-3-1-0-1-3--2-0-2-0-2-0-2-1-2-0-2-1-2-0 
B-1-3-5-3-1-3-5--0-2-4-2-0-2-4----0-1-0---0-1-----0 
e---------------------------------------------- 
 
D---2-3-0 
G---1-2-0 
B-------- 
e-------- 
 
(se repite) 
 
D-------------------------------3-------3-----2-3---3-2-3-0 
G-2-4-5-4-2-4-5--0-1-3-1-0-1-3--2-0-2-0-2-0-2-1-2-0-2-1-2-0 
B-1-3-5-3-1-3-5--0-2-4-2-0-2-4----0-1-0---0-1-----0 
e---------------------------------------------- 
 
D---2-3-0 
G---1-2-0 
B-------- 
e-------- 
 
y comienza en Lam, sol, fa y mi7 
 
 
 
y recuerden: 
'la cagan perrillos'  y gacho,  
si quieren una canción de 
quien sea (música grupera)  
mandenme tres peticiones a  
temerario_mayorhotail.com

 A
        A        
lejandro F
        F        
ernandez

Este fichero es trabajo propio de su transcriptor y representa su interpretación personal de la canción. El material contenido en esta página es para exclusivo uso privado, por lo que se prohibe su reproducción o retransmisión, así como su uso para fines comerciales.



Buscar canción en YouTube Buscar cover en YouTube


Más canciones