Mala hierba (TAB) (2)


Este es el intro de la cancion, a mi me suena jejejeje,
cualquier aclaracion ahy esta mi correo, saludos.

E|----------------------------5h6p5------------------------------------
B|-------------------------6--6-----6----------------------------6---6-
G|-------3--------3-----5-----5-------5-------3--------3------5-------- X2
D|----5--------5-----3---------------------5--------5------3-----------
A|----------6------------------------------------6---------------------
E|-3------------------------------------3------------------------------



E|-------------------------------5h6p5-------
B|----------------------------6--6-----6-----
G|----------3--------3-----5-----5-------5---
D|-------5--------5-----3--------------------
A|-------------6-----------------------------
E|----3--------------------------------------





Figura q va entre las estrofas 00:36 y 01:18

E|------------------------------------------------------------------
B|-------------------------6--------------------------6-------6-----
G|-------3--------3-----5-----------3--------3-----5----5h6p5-------
D|----5--------5-----3-----------5--------5-----3-------------------
A|----------6--------------------------6----------------------------
E|-3--------------------------3-------------------------------------




Saludos para todo el mundo ( o=)===:::

|-î-®-â-n-®-ø-¢-k

 A
        A        
lejandra G
        G        
uzmán

Este fichero es trabajo propio de su transcriptor y representa su interpretación personal de la canción. El material contenido en esta página es para exclusivo uso privado, por lo que se prohibe su reproducción o retransmisión, así como su uso para fines comerciales.



Buscar canción en YouTube Buscar cover en YouTube


Más canciones