Llama por favor (BAJ) (4)


**Porfavor escuchenla para que toquen bien cuando caen
  las figuras de los versos

SIMBOLOGIA:

/= barrido de grave a agudo

= barrido de agudo a grave

h= hamer

INTRO:

g|------------|-------------|-------------|-------------|
D|------------|-------------|-------------|-------------|
A|------------|-------------|-------------|----3---5----|  x2
E|----0-------|-------------|---3-0-------|-------------|

*pura guitarra
*Tienes que oirla para saber cuando entrar poque esta un poco
a destiempo en:

Te necesito ya vez...

g|-12-11-9-----------|--------------|-9-7------------|-------------|
D|---------9-7-------|--9--11-12----|-----10---------|-------------|
A|-------------10-7--|--------------|--------10--7---|-------------|
E|-------------------|--------------|--------------8-|--8-8/10-----|

*otravez guitarra, hasta el segundo:

CORO:

Llama porfavor..

g|---------------------|-------------------|---------------|----------|
D|---------------------|----------0-2------|---------------|----------|
A|---------------------|-0-------0---------|-2--2-2--0-2-3-|-3-3--3-5-|
E|-10/3-3--3-3--3--3-2-|--0--0-0-----0--0-0|---------------|-----5----|

g|-----------|-------------|
D|-----------|-------------|
A|-5-5---5-3-|-3/5-5-5-5-0-|
E|------5-5--|-------------|

*SOLO SAX*

g|----------------------|--------------|--------------|
D|----------------------|--------------|--------------|
A|----------------------|--------------|-3-3---3-5-5--|
E|-3--3-3--3/10-3-3--3-2|-2-0--0-0-----|------5-------|

VERSO:

g|----------------|-----------------|--------------|---------------------|
D|-------------5-4|-----------------|--------------|---------------------|
A|----------------|----------------3|--------------|------------3H5-5(x3)|
E|3--3-3--3-3/7---|0--0-0--0--0-0---|3--3-3--3--3-2|2-0--0-0--0----------|

.= un poco mas rapido para caer en el tiempo de la siguiente nota

 Y aunque me duele.....
g|-------------------------|--------------------|---------------|
D|------.9.9.9----------.9-|--------------------|---------------|
A|7--7-7------7--7-7-------|-2--2-2--2--2-2--0-2|-3--3-3--3--3-3|
E|------------------.10----|--------------------|---------------|

g|------------|--------------------|
D|------------|--------------------|
A|---3-5--5-5-|--5-3-3-3-5-5-5-5/--|
E|-5----------|-5-5----------------|

*Coro otra vez

FIN

Dudas,Reclamos,Sugerencias,Felicitaciones, C
        C        
ontrataciones xD
        D        
  Mi Mail A
        A        
hi E
        E        
sta A
        A        
rriba G
        G        
racias!

 A
        A        
lejandra G
        G        
uzmán

Este fichero es trabajo propio de su transcriptor y representa su interpretación personal de la canción. El material contenido en esta página es para exclusivo uso privado, por lo que se prohibe su reproducción o retransmisión, así como su uso para fines comerciales.



Buscar canción en YouTube Buscar cover en YouTube


Más canciones