Por el hecho de estar sin tí (TAB) (2)


 Intro:

e-3------------------------------------------------------   --------
B-3-3--3-3-1-0-1-0---1-1--------1--0---------------------   -1------
G-0-0-0-----------2--2-2-----2--------2-0-------2/4-2-0-- X2-2------
D------------------0-------2---2----------0/2/0----------   -0------
A--------------------0---0-------------------------------   --------
E-3------------------------------------------------------   --------

Fill
e-----------------------------
B--1/0--4-4-------------------
G-2-----5-5-------------------
D-------5-4-------------------
A-------3---------------------
E-----------------------------            
                   
     RE
       RE       
7 SOL
       SOL       
   RE
       RE       
* Por el hecho de estar sin tí, he debido inventar,  MI
       MI       
7* LAm
       LAm       
   F
        F        
ill MIm
       MIm       
  nuevas formas de combatir los días,  RE
       RE       
7 SOL
       SOL       
  RE
       RE       
  no pensé que sería así, dolorosa verdad,  MI
       MI       
7* LAm
       LAm       
   F
        F        
ill MIm
       MIm       
  aunque no me resigno to davía.  RE
       RE       
7 SOL
       SOL       
   RE
       RE       
* Por el hecho de estar sin tí, demasiado castigo,  MI
       MI       
7* LAm
       LAm       
   F
        F        
ill MIm
       MIm       
  hace frío en mi alma y no hay abrigo,  RE
       RE       
7 SOL
       SOL       
   RE
       RE       
* no pensé que sería así, ahora nada tiene sentido,  MI
       MI       
7* LAm
       LAm       
   F
        F        
iLL MIm
       MIm       
  por el solo hecho de estar si tí, vacío.  DO
       DO       
 MI
       MI       
7* LAm
       LAm       
   RE
       RE       
DO
       DO       
SOL
       SOL       
  (a) E
        E        
l pasado alejándose, y esta pena matándome,  DO
       DO       
 MI
       MI       
7* LAm
       LAm       
   RE
       RE       
DO
       DO       
SOL
       SOL       
  la alegría burlándose, y yo solo apagándome. Por el hecho de estar sin tí, ya no hay poesía, el destino otra vez me desafía. No pensé que sería así, mi esperanza naufraga, cada noche la soledad, me traga. No pensé que sería así, y no encuentro consuelo, que alguien me haga saber que yo, te espero. (A)x4 disfrutenla.............

 A
        A        
lberto Plaza

Este fichero es trabajo propio de su transcriptor y representa su interpretación personal de la canción. El material contenido en esta página es para exclusivo uso privado, por lo que se prohibe su reproducción o retransmisión, así como su uso para fines comerciales.



Buscar canción en YouTube Buscar cover en YouTube


Más canciones