Amor de verano (BAJ) (7)


No se muy bien como poner los tiempos pero
las notas son correctas.

Empiezas en el min 0.07 tocando muy suave

G|------------------------|
D|-1----------------------|
A|----3-------------------|
E|-------4--6-6-6/17--6-6-|

minuto 0.23

---------------------------------------|
---------------------------------------|
-6-6-6-6-3-3-3-3-----------------------|
-----------------4-4-4-4-6-6-6-6/17-17-|

Minuto 0.37
                2x
----------------||
----------------||
-6-6-3-3--------||
----------4--6--||

Minuto 0.51
Va con la guitarra

-------------------|
-------------------|
-3-3-3--3-3-3--5-6-|
----6--4---6-------|

Min 0.56

--------------------------------|
--------------------------------|
-6-6-6-6-3-3-3-3----------------|
----------------4-4-4-4-6-6-6-6-|

Min 1.10

-----------------------------------------------|si no
-----------------------------------------------|les gusta
-6-6-6-6-3-3-3-3-------------------------------|aki
----------------4-4-4-4-6-6/17-17-17/6-6/17-17-|improvisen

Min 1.25

-----------------|------------------------|
-----------------|------------------------|
-6-6-3-3---------|-6-6-3-3----------------|
----------4-6/17-|----------4-6/17/6-6/17-|

Min 1.39
Acompañenlo con esto, se oye bien

-------------------|
-------------------|
-3-3-3--3-3-3--5-6-|
----6--4---6-------|

Min 1.43
Durante el solo de guitarra va esto

---------------------------------------------------|
---------------------------------------------------|
-6-6-6-6-3-3-3-3-----------------------------------|
-----------------4-4-4-4-6-6-6-6/17-17-17-17-17-17-|

Min 1.58

--------------------------------------------|
-----------6--------------------------------|
-6-3-(5)(6)---------------------------------|
------------6/14/6-6/14/6-6/14/6-6/17-17-17-|

Min 2.13

                2x
----------------||
----------------||
-6-6-3-3--------||
----------4--6--||

              2x
--------------||
-3-3----------||
----5-5---3-3-||
-------6-6----||

Min 2.42
Aki toquen con el corazon jeje

------------------|
-3-3--------------|
----5-5-------3-3-|
-------6/13-17----|

              4x
--------------||con esto
-3-3----------||se termina
----5-5---3-3-||la
-------6-6----||cancion

 A
        A        
irbag

Este fichero es trabajo propio de su transcriptor y representa su interpretación personal de la canción. El material contenido en esta página es para exclusivo uso privado, por lo que se prohibe su reproducción o retransmisión, así como su uso para fines comerciales.