Last Child



(repete)         |(repete)         |
E|-----1-0-1-----|-----3-0-3-----|e|-------4-0-4---------4-0-4-5-6--|
B|---3-------3---|---3-------3---|B|-----3-------3-----3-----3-4-5--|
G|-2-----------2-|-0-----------0-|G|-2/4-----------4-4--------------|


        PM|-.-.-.-|

E|-----------------------|------------------------------------------|
B|-----------------------|------------------------------------------|
G|-----------------------|------------------------------------------|
D|-----0-----------------|-5-7-4-5-2--4--0-2-4-5-7-4-5-2-4--0-2-4-5-|
A|-2-4---4--4-2-4-4-5-7~-|-0-0-0-0-0-----0-0-0-0-0-0-0-0-0--0-0-0-0-|
E|-----------------------|------------------------------------------|


E|----------------|---------------|
B|-7h8p7----------|---------------|
G|--------9-7-9-7-|-6h7p6---------|
D|----------------|-------9-7-9-5-|
A|----------------|---------------|
E|----------------|---------------|


Aerosmith
(Guitar chords, ukelele, keyboard, tabs, bass, drums and lyrics)

Este fichero es trabajo propio de su transcriptor y representa su interpretación personal de la canción. El material contenido en esta página es para exclusivo uso privado, por lo que se prohibe su reproducción o retransmisión, así como su uso para fines comerciales.