Krawhitham


Riff 1:


E|--0--1------------------------------|
B|--3--1------------------------------|
G|--0---------------------------------|
D|--2---------3-------------~~2-------|
A|----------3---3---------------~~3---|
E|--------2-------0---0-0-0-----------| 

                     [.....]
                      P.M.                     
Riff 2:


E|-------------------------------------|
B|-------------------------------------|
G|-------------------------------------|
D|------------------------------2~~----|   (2x)
A|-----------1~~-----1-1----3-5--------|
E|-0-0---2-4---------------------------|


E|-----------------------------------|
B|-----------------------------------|
G|-----------------------------------|
D|--------------------0-1-2p1-2h1----|
A|---------1-3----3-3----------------|
E|-2-2---3---------------------------|


E|-----------------------------------|
B|-----------------------------------|
G|-----------------------------------|
D|-----------------------------2~~---|
A|-----------1~~----1-1----3-5-------|
E|-0-0---2-4-------------------------|


Aerosmith
(Guitar chords, ukelele, keyboard, tabs, bass, drums and lyrics)

Este fichero es trabajo propio de su transcriptor y representa su interpretación personal de la canción. El material contenido en esta página es para exclusivo uso privado, por lo que se prohibe su reproducción o retransmisión, así como su uso para fines comerciales.