Kiss Your Past Good-Bye


intro:

e---5---5---5---5-----------------------------------------------
B---5---5---5---5-----------------------------------------------
G------------------etc...---------------------------------------
D---------0-----------------------------------------------------
A-0---0-------0-------------------------------------------------
E---------------------------------------------------------------


e-----5-------5------5------5-----------------------------------
B-----5-------5------5------5------5-------5------5------5------
G----------------------------------6-------6------6------6------
D----------------------------------6-------6------6------6------
A--0-------0-------0-----0------4-------4------4------4---------
E---------------------------------------------------------------

  F
        F        
inders keepers losers weep down on forty second street e------2--------2------2------2--------2-----2-----2-----2------ B------2--------2------2------2--------2-----2-----2-----2------ G------2--------2------2------2--------2-----2-----2-----2------ D--4---------4-------4------4--------3-----3-----3-----3-------- A--------------------------------------------------------------- E--------------------------------------------------------------- oh barefoot children cryin' my oh my (repeat) chorus: Kiss your past goodbye  G
        G        
 F
        F        
Kiss your past goodbye  A
        A        
 D
        D        
Kiss your past goodbye  G
        G        
F#
       F#       
  Kiss your past goodbye yeah yeah yeah -- [ acordes ] -- F
        F        
 = 133211 F#
       F#       
 = 244322 D
        D        
 = xx0232 A
        A        
 = x02220 G
        G        
 = 320022

Aerosmith
(Guitar chords, ukelele, keyboard, tabs, bass, drums and lyrics)

Este fichero es trabajo propio de su transcriptor y representa su interpretación personal de la canción. El material contenido en esta página es para exclusivo uso privado, por lo que se prohibe su reproducción o retransmisión, así como su uso para fines comerciales.