I'm Down



E
        E        
 |----------------------------------------| B
        B        
 |----------------------------------------| G
        G        
 |----------------------------------------| D
        D        
 |--------------------------5--7--5--7--5-| A
        A        
 |--5--7--5--7--5--7--5--7--3--3--3--3--3-| E
        E        
 |--3--3--3--3--3--3--3--3----------------|
 G
        G        
You tellin lies thinking I can't see You can't cry 'cos you're laughing at me  C
        C        
5 I'm down(I'm really down)  G
        G        
5 I'm down(down on the ground)  C
        C        
5 I'm down(I'm really down)  C
        C        
5 / /  G
        G        
5 How can you laugh when you know I'm down How can you laugh when you know I'm down Solo:  E
        E        
----------------------------------------|  B
        B        
----------------------------------------|  G
        G        
----------------------------------------|  D
        D        
--------3-----------------------3----3--|  A
        A        
----35---5---1-1---1-3-----35---5-----|  E
        E        
--3---------------3-------3-------------|
 E
        E        
----------------------------------------|  B
        B        
----------------------------------------|  G
        G        
---------------------3----3-5b-5-5rp3-3-|  D-5
       D-5       
b--5-5rp3-3----3h5---5----------------|  A
        A        
--------------3-------------------------|  E
        E        
----------------------------------------|
[alternate bends from full to half]  E
        E        
----------------------------------------|  B
        B        
----------------------------------------|  G
        G        
------3-----5b-5-5-5-5-5-5-5-5-5-5b-5r-3|  D-5
       D-5       
--5---5-------------------------------|  A
        A        
----------------------------------------|  E
        E        
----------------------------------------|
 E
        E        
--------------------------|-------------|  B
        B        
--------------------------|-------------|  G
        G        
--------------------------|-------------|  D-5
       D-5       
--------------3---------|-----------5-|  A
        A        
-------1-3--35---5-3-1---|-----------5-|  E
        E        
-----3------------------3-|-----1b-r--3-|
^"Else" part^ The chord progression for the next verse is the same as above. D
        D        
uring the piano solo the chord progression is  G
        G        
 C
        C        
 G
        G        
 D
        D        
 C
        C        
 G
        G        
= slide b= bend r= release bend h= hamer-on p= pull-off  G
        G        
 C
        C        
5  D
        D        
5

Aerosmith
(Guitar chords, ukelele, keyboard, tabs, bass, drums and lyrics)

Este fichero es trabajo propio de su transcriptor y representa su interpretación personal de la canción. El material contenido en esta página es para exclusivo uso privado, por lo que se prohibe su reproducción o retransmisión, así como su uso para fines comerciales.