Hoodoo Voodoo Medicine Man


main riff like this:



E|---------------------------------------------------|
B|---------------------------------------------------|
G|--------------------4-2--------------[4-2]-OR------|
D|---------4-2------4----------4-2-------------[4-2]-|
A|-------4--------4----------4-------4---------------|
E|-(0h)2--------2----------2-------2-----------------|


E|---------------|
B|---------------|
G|---------------|
D|--4-4-4-4-4-2--|
A|--4-4-4-4-4-2--|
E|--2-2-2-2-2-0--|


                Some kinda voodoo....


then, at the beggining of the next verse, do this twice:




E|-------------------------------------------------|
B|-------------------------------------------------|
G|--------------------4-2--------------4--6--7--9--|
D|---------4-2------4----------4-2-(0)-4--6--7--9--|
A|-------4--------4----------4---------2--4--5--7--|
E|-(0h)2--------2----------2-----------------------|




Aerosmith kicks ass!


/^^^A^^^

Aerosmith
(Guitar chords, ukelele, keyboard, tabs, bass, drums and lyrics)

Este fichero es trabajo propio de su transcriptor y representa su interpretación personal de la canción. El material contenido en esta página es para exclusivo uso privado, por lo que se prohibe su reproducción o retransmisión, así como su uso para fines comerciales.