Hole In My Soul Intro



E|-------5--8--7--8---7---5--7--5-----------------------------------|
B|-----6---------------------------8--------------------------------|
G|---5--------------------------------------------------------------|
D|------------------------------------------------------------------|
A|------------------------------------------------------------------|
E|------------------------------------------------------------------|


E|------5--8---10---------------------------------------------------|
B|----6-------------------------------------------------------------|
G|--5---------------------------------------------------------------|
D|------------------------------------------------------------------|
A|------------------------------------------------------------------|
E|------------------------------------------------------------------|




Aerosmith
(Guitar chords, ukelele, keyboard, tabs, bass, drums and lyrics)

Este fichero es trabajo propio de su transcriptor y representa su interpretación personal de la canción. El material contenido en esta página es para exclusivo uso privado, por lo que se prohibe su reproducción o retransmisión, así como su uso para fines comerciales.