Hand That Feeds


Doctor, doctor, doctor!


E|-----------------------------------|
B|-----------------------------------|
G|-----------------------------------|
D|-7---7---7/------------------------|
A|-7---7---7/------------------------|
E|-------------0-1-2-3-4-5-----------|


I scream your name into the crowd!


E|---------------------------------------------|
B|---------------------------------------------|
G|-----------4-4-4-4-4-4-4-4-6-6-6-6-6-6-6-6---|
D|-----------4-4-4-4-4-4-4-4-6-6-6-6-6-6-6-6---|
A|-----------2-2-2-2-2-2-2-2-4-4-4-4-4-4-4-4---|
E|-0-1-2-3-------------------------------------|


E|---------------------|
B|---------------------|
G|-7-7-7-7-7-7-7-7-----|
D|-7-7-7-7-7-7-7-7-9---|
A|-5-5-5-5-5-5-5-5-7---|
E|-----------------0---|


The hand that feeds me!
Doctor, doctor, doctor!


E|-------------------------------------|
B|-------------------------------------|
G|-------------------------------------|
D|--------------7--7--7/---------------|
A|--------------7--7--7/---------------|
E|-0-1-2-3-4-5------------0-1-2-3-4-5--|


All things you put me through


E|---------------------------------------------|
B|---------------------------------------------|
G|-----------4-4-4-4-4-4-4-4-6-6-6-6-6-6-6-6---|
D|-----------4-4-4-4-4-4-4-4-6-6-6-6-6-6-6-6---|
A|-----------2-2-2-2-2-2-2-2-4-4-4-4-4-4-4-4---|
E|-0-1-2-3-------------------------------------|


E|---------------------|
B|---------------------|
G|-7-7-7-7-7-7-7-7-----|
D|-7-7-7-7-7-7-7-7-9---|
A|-5-5-5-5-5-5-5-5-7---|
E|-----------------0---|


The hand that feeds me! Hey hey hey!


E|-------------------------------------|
B|-------------------------------------|
G|-------------------------------------|
D|--------------7--7--7/---------------| [X2]
A|--------------7--7--7/---------------|
E|-0-1-2-3-4-5------------0-1-2-3-4-5--|


In the middle of, with a spittle of


E|----|--------------------------------------------------|
B|----|--------------------------------------------------|
G|-5--|--------------------------------------------------|
D|-5--|--5-5-5-5-5-5-5-5-4-4-4-4-4-4-4-4-2-2-2-2-2-2-2-2-| [X2]
A|-3--|--5-5-5-5-5-5-5-5-4-4-4-4-4-4-4-4-2-2-2-2-2-2-2-2-|
E|----|--3-3-3-3-3-3-3-5-2-2-2-2-2-2-2-2-0-0-0-0-0-0-0-0-|


E|-------------------------------------------------|
B|-------------------------------------------------|
G|-------------------------------------------------|
D|-5-5-5-5-5-5-5-5-4-4-4-4-4-4-4-4-2-2-2-2-2-2-2-2-|
A|-5-5-5-5-5-5-5-5-4-4-4-4-4-4-4-4-2-2-2-2-2-2-2-2-|
E|-3-3-3-3-3-3-3-5-2-2-2-2-2-2-2-2-0-0-0-0-0-0-0-0-|


E|---------------------------------|
B|---------------------------------|
G|-7-7-7-7-7-7-7-7-5-5-5-5-5-------|
D|-7-7-7-7-7-7-7-7-5-5-5-5-5-------|
A|-5-5-5-5-5-5-5-5-3-3-3-3-3 (...)-|
E|---------------------------------|


E|-------------------------------------------|
B|-------------------------------------------|
G|-------------------------------------------|
D|--------------7--7--7/---------------3-3-3-| [X2]
A|--------------7--7--7/---------------3-3-3-|
E|-0-1-2-3-4-5------------5-4-3-2-1-1~-1-1-1-|



(Solo)

Doctor, doctor, doctor!


E|-------------------------------------|
B|-------------------------------------|
G|-------------------------------------|
D|--------------7--7--7/---------------| [X2]
A|--------------7--7--7/---------------|
E|-0-1-2-3-4-5------------0-1-2-3-4-5--|


All things you put me through


E|---------------------------------------------|
B|---------------------------------------------|
G|-----------4-4-4-4-4-4-4-4-6-6-6-6-6-6-6-6---|
D|-----------4-4-4-4-4-4-4-4-6-6-6-6-6-6-6-6---|
A|-----------2-2-2-2-2-2-2-2-4-4-4-4-4-4-4-4---|
E|-0-1-2-3-------------------------------------|


E|---------------------|
B|---------------------|
G|-7-7-7-7-7-7-7-7-----|
D|-7-7-7-7-7-7-7-7-9---|
A|-5-5-5-5-5-5-5-5-7---|
E|-----------------0---|


the hand that feeds me, yeah yeah


E|-------------------------------------------|
B|-------------------------------------------|
G|-------------------------------------------|
D|--------------7--7--7/---------------3-3-3-|
A|--------------7--7--7/---------------3-3-3-|
E|-0-1-2-3-4-5------------5-4-3-2-1-1~-1-1-1-|


(Base do solo final)


E|----------------------------------------------|
B|----------------------------------------------|
G|----------------------------------------------|
D|-----------------------------------3-3-3------|
A|--------------7-7-7-7------7-6-5-4-3-3-3------|
E|-0-1-2-3-4-5--5-5-5-5------5-4-3-2-1-1-1(...)-|


Aerosmith
(Guitar chords, ukelele, keyboard, tabs, bass, drums and lyrics)

Este fichero es trabajo propio de su transcriptor y representa su interpretación personal de la canción. El material contenido en esta página es para exclusivo uso privado, por lo que se prohibe su reproducción o retransmisión, así como su uso para fines comerciales.