Get a Grip


here's the chorus:


------------------------------------------------------------------------------
------------------------------------------------------------------------------
-----------------------979----------------------------------------------------
----------979----------979----------------------------------------------------
--------5-979--------5-757----------------------------------------------------
--7-5-7---757--7-5-7----------------------------------------------------------


before the verse:

------------------------------------------------------------------------------
------------------------------------------------------------------------------
------------------------------------------------------------------------------
---------------------------------2--------------------------------------------
-7-5-0-1p0------7-5-0-1p0--------2--------------------------------------------
-----------3-0------------3-0----0--------------------------------------------


before solo:

------------------------------------------------------------------------------
------------------------------------------------------------------------------
--9--7--4---9--7--4---9--7----------------------------------------------------
--9--7--4---9--7--4---9--7--9--7--5--4----------------------------------------
--7--5--2---7--5--2---7--5--9--7--5--4----------------------------------------
----------------------------7--5--3--2---0------------------------------------


after solo: (do twice)

------------------------------------------------------------------------------
------------------------------------------------------------------------------
------------------------------------------------------------------------------
------------------------------------------------------------------------------
--------7-------------------7-------------------------------------------------
-9-77-9----9-77-9-0--9-77-9----99-88-77-55------------------------------------


(do this section twice too)

------------------------------------------------------------------------------
------------------------------------------------------------------------------
------------------------------------------------------------------------------
------------------------------------------------------------------------------
--------5-------------------5-------------------------------------------------
-7-55-7----7-55-7-0--7-55-7----77-66-55-33------------------------------------


(do this once)

-------------------------------9p7--------------------------------------------
-----------------------------------9p7----------------------------------------
---------------------------------------9-6------------------------------------
------------------------------------------------------------------------------
--------7-------------------7-----------------------7-------------------7-----
-9-77-9----9-77-9-0--9-77-9------------------9-77-9----9-77-9-0--9-77-9-------


------------------------------------------------------------------------------
------------------------------------------------------------------------------
------------------------------------------------------------------------------
-44-66-77-99--11--4-----------------------------------------------------------
-44-66-77-99--11--4-----------------------------------------------------------
-22-44-55-77--9---2-----------------------------------------------------------


that's all the parts.

Aerosmith
(Guitar chords, ukelele, keyboard, tabs, bass, drums and lyrics)

Este fichero es trabajo propio de su transcriptor y representa su interpretación personal de la canción. El material contenido en esta página es para exclusivo uso privado, por lo que se prohibe su reproducción o retransmisión, así como su uso para fines comerciales.