Dudes Like a Lady



e||--------------------------|-----2--------3-----2-----||
H||--------------------------|-----3--------3-----3-----||
G||--2-----2--------2--2--0--|--------2--2--------------||
D||--2-----2--5-----2--2--0--|--0-----0--0-----0--------||
A||--0-----0--5-----0--0-----|--------------------------||
E||-----------3--------------|--------------------------||


      |  |  |  |  |  |  |  |     |  |  |  |  |  |  |  |

 e||--------------------------|--------------------------||
 H||--------------------------|--------------------------||
 G
        G        
||--------------------------|--------------------------||  D
        D        
||--------------------------|--7--9--7--7--10----9-----||  A
        A        
||--7-----7--5-----7--7--5--|--5--5--5--5--7--7--7--7--||  E
        E        
||--5-----5--3-----5--5-----|--------------------------||


Aerosmith
(Guitar chords, ukelele, keyboard, tabs, bass, drums and lyrics)

Este fichero es trabajo propio de su transcriptor y representa su interpretación personal de la canción. El material contenido en esta página es para exclusivo uso privado, por lo que se prohibe su reproducción o retransmisión, así como su uso para fines comerciales.