Dude Looks Like A Lady


  (live version of the song from the album B
        B        
ig Ones) Tabbed by C
        C        
saba Horvath from Hungary. This is the intro and the main riff: Riff1/Guitar1: | | | | | | | | | | | | | | | | e||--------------------------|-----2--------3-----2-----|| H||--------------------------|-----3--------3-----3-----||  G
        G        
||--2-----2--------2--2--0--|--------2--2--------------||  D
        D        
||--2-----2--5-----2--2--0--|--0-----0--0-----0--------||  A
        A        
||--0-----0--5-----0--0-----|--------------------------||  E
        E        
||-----------3--------------|--------------------------||
Riff2/Guitar2(later): | | | | | | | | | | | | | | | | e||--------------------------|--------------------------|| H||--------------------------|--------------------------||  G
        G        
||--------------------------|--------------------------||  D
        D        
||--------------------------|--7--9--7--7--10----9-----||  A
        A        
||--7-----7--5-----7--7--5--|--5--5--5--5--7--7--7--7--||  E
        E        
||--5-----5--3-----5--5-----|--------------------------||
^......................^ use palm mute in the second part of the verse Notes: Riff2 is the "real" main riff, you should play Riff1 only in the intro.

Aerosmith
(Guitar chords, ukelele, keyboard, tabs, bass, drums and lyrics)

Este fichero es trabajo propio de su transcriptor y representa su interpretación personal de la canción. El material contenido en esta página es para exclusivo uso privado, por lo que se prohibe su reproducción o retransmisión, así como su uso para fines comerciales.