Dream On Intro



E|4----4----3----3---|-4----4----3----3--|4----4----6----6--|8----8----8-------|
B|6----6----4----4---|-3----3----2----2--|6----6----6----6--|6----6----6-------|
G|--5----5----5-----5|---5----5----5----5|--5----5----5----5|---5----5---------|
D|-------------------|-------------------|------------------|------------------|
A|-------------------|-------------------|------------------|------------------|
E|-------------------|-------------------|------------------|------------------|


E|4----4----3----3---|-4----4----3----3--|4----4----6----6--|8----8----6----4--|
B|6----6----4----4---|-3----3----2----2--|6----6----6----6--|6----6----6----6--|
G|--5----5----5-----5|---5----5----5----5|--5----5----5----5|---5----5---------|
D|-------------------|-------------------|------------------|------------------|
A|-------------------|-------------------|------------------|------------------|
E|-------------------|-------------------|------------------|------------------|


E|6----8----8----6----4----4|
B|6----6----6----6----6----6|
G|--------------------------|
D|--------------------------|
A|--------------------------|
E|--------------------------|


E|------------------|------------------|--------------------|-----------------------------------|
B|------------------|------------------|5h6/8--6h8/9--8h9/11|9h11h9--8h9h8--6h8h6--4h6h4--2p1p13|
G|6-5-6-5-6-5-6-5---|6-5/3-5/6---------|--------------------|-----------------------------------|
D|------------------|------------------|--------------------|-----------------------------------|
A|------------------|------------------|--------------------|-----------------------------------|
E|------------------|------------------|--------------------|-----------------------------------|


Aerosmith
(Guitar chords, ukelele, keyboard, tabs, bass, drums and lyrics)

Este fichero es trabajo propio de su transcriptor y representa su interpretación personal de la canción. El material contenido en esta página es para exclusivo uso privado, por lo que se prohibe su reproducción o retransmisión, así como su uso para fines comerciales.