Crazy Solo


e|------------------------------------------------------------------
B|------------------------------------------------------------------
G|-------------------------------------2---4-4BU-4BU HOLD---2-4-2~---
D|---------------------4bu-4bd-2~---4-------------------------------
A|--2bu (9 times)---0-----------------------------------------------
E|------------------------------------------------------------------

                                                       < 4 TIMES >


e|-----------------2------7BU--5-----8BU-7BU--7--5--5--------5-5----
B|----------2---5----------------5-----------------------5^7--------
G|----4BU-----------------------------------------------------------
D|------------------------------------------------------------------
A|------------------------------------------------------------------
E|------------------------------------------------------------------


e|--------10----10----10-----10-----10-----10-----17------17--------
B|---5/10----10----10----10-----10-----10-------------17------17----
G|------------------------------------------------------------------
D|------------------------------------------------------------------
A|------------------------------------------------------------------
E|------------------------------------------------------------------


e|---19BU---17----------14------------------------------------------
B|--------------17BU--------17---14---------------------------------
G|------------------------------------16BU----------14--16-14BU-----
D|-------------------------------------------14^16------------------
A|------------------------------------------------------------------
E|------------------------------------------------------------------


                             < 4 TIMES, FA
       FA       
ST > e|-------------------------------17-----------------21BU-21BU-21BU-- B|-----------17BU--17---------------17------------------------------ G|----------------------16BU~--------------------------------------- D|-16--14----------------------------------------------------------- A|------------------------------------------------------------------ E|------------------------------------------------------------------ < 8 TIMES > e|--17-------------------------------------------------------------- B|----------------17------------------------------------------------ G|---------19BU----------------------------------------------------- D|------------------------------------------------------------------ A|------------------------------------------------------------------ E|------------------------------------------------------------------ I KNOW I MI
       MI       
SSED
        D        
 THE
        E        
 "I NEED
        D        
 YOUR LOVE
        E        
 PART" C
        C        
OULDN'T B
        B        
E
        E        
 BOTHERED
        D        
  I'VE
        E        
 BEEN LOOKIN F
        F        
OR THE SOL
       SOL       
O TO THIS SONG
        G        
 FOR WHILE
        E        
 ON THE
        E        
 NET WITH NO JOY SO I D
        D        
ECIDED
        D        
 TO DO
       DO       
IT MYSELF. TOOK  A
        A        
WHILE
        E        
 BUT I THINK ITS A
        A        
CTUALLY PERFECT. MOST OF
        F        
 ALL KEEP ON ROCKIN' C
        C        
AUSE
        E        
 POP MUSIC
        C        
 IS C
        C        
RAP1 CHEERS1 DAVIE

Aerosmith
(Guitar chords, ukelele, keyboard, tabs, bass, drums and lyrics)

Este fichero es trabajo propio de su transcriptor y representa su interpretación personal de la canción. El material contenido en esta página es para exclusivo uso privado, por lo que se prohibe su reproducción o retransmisión, así como su uso para fines comerciales.