Chiquita


Intro


E|-------------12---------------12/-----|
B|-------------12---------------12/-----|
G|-------------12---------------12/-----|   (x7)
D|-5-5-5-5-5-------5-5-5-5-5------------|
A|-5-5-5-5-5-------5-5-5-5-5------------|
E|-3-3-3-3-3-------3-3-3-3-3------------|


E|---------------------------------------------------|
B|---------------------------------------------------|
G|---------------------------------------------------|
D|-5-5-5-5-7-7---------------------------------------|
A|-5-5-5-5-7-7-9-10-9-7-7-9-10-9-7-7-9-10-9-7-7-9-10-|
E|-3-3-3-3-5-5-5-5--5-5-5-5-5--5-5-5-5-5--5-5-5-5-5--|


E|-------------12---------------12/---------------12--|
B|-------------12---------------12/---------------12--|
G|-------------12---------------12/---------------12--|   
D|-5-5-5-5-5-------5-5-5-5-5-----------5-5-5-5-5------|
A|-5-5-5-5-5-------5-5-5-5-5-----------5-5-5-5-5------|
E|-3-3-3-3-3-------3-3-3-3-3-----------3-3-3-3-3------|


E|--------------------|
B|--------------------|
G|--------------------|
D|-5-5-5-5------------|
A|-5-5-5-5-5-5-7-8-7--|
E|-3-3-3-3-3-3-3-3-3--|


-Riff principal


E|---------------------------------------------------------|
B|---------------------------------------------------------|
G|---------------------------------------------------------|
D|---------------------------------------------------------|
A|------5-6-7-5-6-7-10-11-12-11-10-3-5-7-8-7-8-7-8-8-8-10--|
E|-10/--3-4-5-3-4-5-8--9--10-9--8--1-3-5-6-5-6-5-6-6-6-8---|


Base (A
        A        
  D
        D        
5  A
        A        
5)  A
        A        
Oh, on the beach of C
        C        
artegena  A
        A        
She, salty baby with the name, ah D5 Oh, C
        C        
hiquita A5 Oh, C
        C        
hiquita (Riff Principal) -DEPOIS DO
       DO       
2°REFRÏO G
        G        
 (palm mute) - Intro A
        A        
 (Varias vezes) oh, no, no, now don't you wake me up, I'm dreamin' A
        A        
 (Varias vezes) No, no, no, if you wake me I'll be screamin D5 Love C
        C        
hiquita A5 Love C
        C        
hiquita

Aerosmith
(Guitar chords, ukelele, keyboard, tabs, bass, drums and lyrics)

Este fichero es trabajo propio de su transcriptor y representa su interpretación personal de la canción. El material contenido en esta página es para exclusivo uso privado, por lo que se prohibe su reproducción o retransmisión, así como su uso para fines comerciales.