Bone To Bone



   E
        E        
|------------------------------------------------------|  B
        B        
|------------------------------------------------------|  G
        G        
|-----5------------------------------------------------|  D
        D        
|---------7p6p0---5---------------------------5---6---7|  A
        A        
|---------------------5p4p0---3------0--------5---6---7|  E
        E        
|---------------------------------------0-----3---4---5|
 E
        E        
|-----------------------------------|  B
        B        
|----11b(full and release)---9h11p9b|  G
        G        
|-----------------------------------|  D
        D        
|-----------------------------------|  A
        A        
|-----------------------------------|  E
        E        
|-----------------------------------|
 E
        E        
|-----------------------------------|  B
        B        
|----14b(hold)r-------12h14p12b-----|  G
        G        
|-----------------------------------|  D
        D        
|-----------------------------------|  A
        A        
|-----------------------------------|  E
        E        
|-----------------------------------|
 E
        E        
|-----------------------------------|  B
        B        
|-----15b(full)r--------------------|  G
        G        
|-----14b(full)r------12h14p12b-----|  D
        D        
|-----------------------------------|  A
        A        
|-----------------------------------|  E
        E        
|-----------------------------------|


Aerosmith
(Guitar chords, ukelele, keyboard, tabs, bass, drums and lyrics)

Este fichero es trabajo propio de su transcriptor y representa su interpretación personal de la canción. El material contenido en esta página es para exclusivo uso privado, por lo que se prohibe su reproducción o retransmisión, así como su uso para fines comerciales.