Bitch's Brew


Intro:

E|---------0---------------0----------------0---------------0-|
B|-------0---0-----------0---0------------0---0-----------0---|
G|-----7-------7-------4-------4--------2-------2-------2-----| (2x)
D|---7----------7----4-----------4----2-----------2---2-------|
A|-7---------------4----------------2---------------2---------|
Eb|-----------------------------------------------------------|


E|--------------|
B|4-4-4-4-5-(5)-|
G|4-4-4-4-4-(4)-| (4x)
D|2-2-2-2-2-(2)-|
A|2-2-2-2-------|
Eb|-------------|


-Riff Refrϣo (Principal)


E|-----------------------|
B|-----------------------|
G|-----------------------|
D|------------7-4-9-7-4--|
A|-5-2-7-5-2--5-2-7-5-2--|
Eb|-4-1-6-4-1------------|


-Depois do Refrϣo


E|-----------------|
B|-----------------|
G|-----------------|
D|-7--5--4--3-3-3--|
A|-7--5--4--3-3-3--|
Eb|-6--4--3--2-2-2-|


- (2:08)


E|---------------------|
B|---------------------|
G|---------------------|(varias vezes)
D|-5-5-7-8--5-5-7-8-7--|
A|-3-3-3-3--3-3-3-3-3--|
Eb|--------------------|


E|-------------|
B|-------------|
G|-------------|
D|-9-9---------|
A|-9-9---------|
Eb|-8-8(...)---|


-Depois

(Intro) - Termina com o (Riff do refrϣo (principal))

Aerosmith
(Guitar chords, ukelele, keyboard, tabs, bass, drums and lyrics)

Este fichero es trabajo propio de su transcriptor y representa su interpretación personal de la canción. El material contenido en esta página es para exclusivo uso privado, por lo que se prohibe su reproducción o retransmisión, así como su uso para fines comerciales.