Back In The Saddle Intro


This is just the rythm during the chorus/2nd intro and the beginning of the verses.
Ill post the solo and all that other stuff some other time.
repeat as many times as needed

e---------------------------------------------|
b---------------------------------------------|
g---------------------------------------------|
d---------------------------------------------|
a--------------------------------5---5-5-4-0--|
e-3--0-----3--0----2-3-0---0-0-0--------------|


here comes the verse repeat as many times as needed

e---------------------------------|
b---------------------------------|
g---------------------------------|
d-7-7-7-7-7-7-7-7-7-7-7-7-7-7-7-7-|
a-0-0-0-0-0-0-0-0-0-0-0-0-5-5-3-3-|
e---------------------------------|


Aerosmith
(Guitar chords, ukelele, keyboard, tabs, bass, drums and lyrics)

Este fichero es trabajo propio de su transcriptor y representa su interpretación personal de la canción. El material contenido en esta página es para exclusivo uso privado, por lo que se prohibe su reproducción o retransmisión, así como su uso para fines comerciales.