Baby Please Don't Go


Intro:


e|-------------15----------|6x
B|-------------15----------|                                            
G|-------912------12/9-----|
D|-------912------12/9-----|
A|-7~----------------------|
E|-0~----------------------|


Gtr I e II (lick1)

e|----------------------------------------------------------------------------------------|
B|---------------8-----------------8------------------------------------------------------|
G|--9-9~~--9-7-9---7---------9-7-9---9-7-9-9~-9-7---7-------------------------------------|
D|--------------------9-8~------------------------8p7---8-7-5----5-7-5--------------------|
A|-------------------------------------------------------------7-------7-7--5-7-----------|
E|------------------------------------------------------------------------------7-5-3p-0--|


Gtr I

e|--------------------------|--------------------------|--------------------------|--------------------------|
B|--------------------------|--------------------------|--------------------------|--------------------------|
G|------7-------------------|------7------9-9-9-9------|------7-------------------|------7------9-9-9-9------|
D|------7-------------------|------7------9-9-9-9------|------7-------------------|------7------9-9-9-9------|
A|------5-------------------|------5------7-7-7-7------|------5-------------------|------5------7-7-7-7------|
E|0-------/---0------------|--------/---0------------|--------/---0------------|--------/---0------------|
               |-----let ring---          |-----let ring---          |-----let ring---         |-----let ring---

Gtr II                        

  |----------------------palm mute--------------------|
e|--------------------------|--------------------------|
B|--------------------------|--------------------------|
G|--------------------------|--------------------------|
D|--------------------------|--------------------------|
A|--------------------------|--------------------------|
E|00200020002000200020002000|20002000200020002000200020|  -> riff1 


Verso 1:
  
Gtr I

e|-----------------------------|-------------------------------|
B|-----------------------------|-------------------------------|
G|------------------7-7-7--7---|-------------7h9p7-------------|
D|hold--------------7-7-7--7---|------------------9-7h9p7--9/--|
A|hold--------------9-9-9--9---|-------------------------7-7/--|
E|hold-------------------------|-------------------------------|


GTr II (riff2)

e|-----------------------------|-------------------------------|
B|-----------------------------|-------------------------------|
G|------------------7-7-7--7/--|-------------7---7---7-----7/--|
D|------------------7-7-7--7/--|-------------7---7---7-----7/--|
A|------------------9-9-9--9/--|-------------9---9---9-----9/--|
E|-----------------------------|-------------------------------|

 B
        B        
ABY PLEA' DO
       DO       
N'T G
        G        
O  B
        B        
ABY PLEA' DO
       DO       
N'T G
        G        
O  B
        B        
ABY PLEASE DO
       DO       
N'T G
        G        
O  DO
       DO       
WN TO NEW ORLEANS YOU KNOW I LOVE
        E        
 YOU SO  B
        B        
ABY PLEASE DO
       DO       
N'T G
        G        
O Gtr I e|----12/---0---12/---0-----|2x B|----12/---0---12/---------| G|--------------------------| D|--------------------------| A|--------------------------| E|--------------------------| Gtr II = riff1 Verso 2 Gtr I  G
        G        
tr II = riff2 e|-----------------------------|------------------------------------------------| B|-----------------------------|------------------------------------------------| G|-----------------------------|-----------------9p7----------------------------| D|---------------------7bf-----|---------------------9-9--7-9p7-8p7-------9/----| A|-----------------------------|------------------------------------10-7--7/----| E|-----------------------------|------------------------------------------------| WELL YOUR MAN DO
       DO       
NE G
        G        
ONE
        E        
  WELL YOUR MAN DO
       DO       
NE G
        G        
ONE
        E        
  YEAH YOUR MAN DO
       DO       
NE G
        G        
ONE
        E        
   DO
       DO       
WN TA C
        C        
OUNTY FA
       FA       
RM e|-----------0--------------| B|-----------0--------------| G|-----------0--------------| D|--------------------------| A|--------------------------| E|--------------------------| HE G
        G        
OT THE
        E        
 SCHACKLES ON  B
        B        
ABY PLEASE DO
       DO       
N'T G
        G        
A
        A        
WAY Gtr I e|----12/---0---12/---0-----|2x B|----12/---0---12/---0-----| G|--------------------------| D|--------------------------| A|--------------------------| E|--------------------------| Gtr II = riff1 verso 3 Gtr I a.h.  G
        G        
tr II = riff2 e|------------------------------------|------------------------------------------------| B|------------------------------------|----------------------------9/------------------| G|----------------9p7-----------------|-----------------9p7--------9/------------------| D|----------------9p7--9p8p7--9/------|-----------------9p7-9p8p7-----9/---------------| A|--------------------------7-7/------|--------------------------7----7/---------------| E|------------------------------------|------------------------------------------------| BEFORE
       RE       
 I B
        B        
E
        E        
 THE DO
       DO       
G
        G        
   B
        B        
EFORE
       RE       
 I B
        B        
E
        E        
 THE DO
       DO       
G
        G        
  YEAH BEFORE
       RE       
 BEIN' THE DO
       DO       
G
        G        
  GET YOU'RE
       RE       
 WEIGHT OUT HERE
       RE       
  I'LL MAKE
        E        
 YA
        A        
 WALK IT'LL OFF
        F        
  BABY PLEASE DO
       DO       
N'T G
        G        
A
        A        
WAY Well all right Gtr I e II (lick1) E G
        G        
 A
        A        
 C
        C        
E7
       E7       
  oow BABY PLEASE DO
       DO       
N'T G
        G        
O BABY PLEASE DO
       DO       
N'T G
        G        
O BABY PLEASE DO
       DO       
N'T G
        G        
O DOWN TO NEW ORLEANS YOU KNOW I LOVE
        E        
 YOU SO |-4x-| e|--------------------------------| B|--------------------------------| G|--------------------7/--7-7-7---| D|--------------------7/--7-7-7---| A|--------------------9/--9-9-9---| E|--------------------------------| BABY PLEASE DO
       DO       
N'T G
        G        
O |palm mute| e|--------------------------------|5x B|---------------------------7----| G|------------------7-7-7-7--7----| D|------------------7-7-7-7--7----| A|------------------9-9-9-9-------| E|--------------------------------| Now I feel right now My baby's leavin' On that midnight train  A
        A        
nd i'm dyin' dyin'  D
        D        
yin' dyin' dyin' I'm dyin' i'm dyin' I'm dyin' e|-----------------------12-------|4x B|-----------------------12-------| G|-----------------------13-------| D|-----------------------14-------| A|-----------------------14-------| E|-----------------0-----12-------| I'm dy-dy-dy-dy-ri-right now right now right now right now Uma oitava acima: Gtr II E5 G
        G        
A
        A        
C
        C        
5 Gtr I let ring------------------------| e|------------------------------------------------------------------|----------------------------------|  B
        B        
|---15bfp12-15bfp12-15bfp12-15bfp12-15bfp12-15bfp12-15bfp12-15bfp12|----------------------------------|  G
        G        
|------------------------------------------------------------------|----------------------------------|  D
        D        
|------------------------------------------------------------------|----------------------------------|  A
        A        
|------------------------------------------------------------------|----------------------------------|  E
        E        
|------------------------------------------------------------------|-0---------------0----------------|
e|17fbr-17fbr-17fbr-17fbr-17fbr-17fbr-17fbr-17fbr-17fbr-17fbr|17---17-17-17-17-17-17-17-17-17-17-17-20-22fb-22fb--| B|-----------------------------------------------------------|----------------------------------------------------| G|-----------------------------------------------------------|----------------------------------------------------| D|-----------------------------------------------------------|----------------------------------------------------| A|-----------------------------------------------------------|----------------------------------------------------| E|-----------------------------------------------------------|----------------------------------------------------| Gtr I e|----12/---0---12/---0-----|4x B|----12/---0---12/---0-----| G|--------------------------| D|--------------------------| A|--------------------------| E|--------------------------| Gtr II = riff1 Gtr I  G
        G        
tr II = riff1 e|----------------------|---------------------15p14p12-15p14p12-15p14p12-15p14p12-15p14p12-15p14p12-15p14p12-15p14p12-| B|----------------------|---------------------------------------------------------------------------------------------| G|----------------------|---------------------------------------------------------------------------------------------| D|------------------7fb-|---------------------------------------------------------------------------------------------| A|----------------------|---------------------------------------------------------------------------------------------| E|----------------------|---------------------------------------------------------------------------------------------| BABY PLEASE DO
       DO       
N'T G
        G        
O  B
        B        
ABY PLEASE DO
       DO       
N'T G
        G        
O e|-----15-----12----12-----------------------------------------------------------------------------------------------| B|----------------------15---12-15--15--15b--15p12-------------------------------------------------------------------| G|-------------------------------------------------------14---14--14-12-1412- 14brp12--------------------------------| D|---------------------------------------------------------------------------------------14/-------------------------| A|-------------------------------------------------------------------------------------------------------------------| E|-------------------------------------------------------------------------------------------------------------------|  B
        B        
ABY PLEASE DO
       DO       
N'T G
        G        
O  DO
       DO       
WN TA
        A        
 NEW ORLEANS YOU KNOW I LOVE
        E        
 YOU SO  B
        B        
ABY PLEA DO
       DO       
N'T G
        G        
A
        A        
WAY e|--------------------------------|4x B|--------------------------------| G|--7-5-5--7--5--7----------------| D|--7-5-5--7--5--7----------------| A|--------------------------------| E|--------------------------------| YEAH yeah YEAH yeah WELL A
        A        
LRIGHT A
        A        
LRIGHT A
        A        
LRIGHT Gtr I e|----------------------------------------------------------------------------------------| B|---------------8-----------------8------------------------------------------------------| G|--9-9~~--9-7-9---7---------9-7-9---9-7-9-9~-9-7---7-------------------------------------| D|--------------------9-8~------------------------8p7---8-7-5----5-7-5--------------------| A|-------------------------------------------------------------7-------7-7--5-7-----------| E|------------------------------------------------------------------------------7-5-3p-0--| Gtr II e|-------------------15--------------------------15--------------------------------------------------------------------| B|-17-17~~------15/17--1715----------------15/17--17-15-17-17~-1715-----15---------------------------------------------| G|--------15/16--------------16-15~--15/16---------------------------15p14--1514-12--12-14-12--------------------------| D|----------------------------------------------------------------------------------14--------14-14--12-14-------------| A|---------------------------------------------------------------------------------------------------------14-12-------| E|--------------------------------------------------------------------------------------------------------------15p-0--|

Aerosmith
(Guitar chords, ukelele, keyboard, tabs, bass, drums and lyrics)

Este fichero es trabajo propio de su transcriptor y representa su interpretación personal de la canción. El material contenido en esta página es para exclusivo uso privado, por lo que se prohibe su reproducción o retransmisión, así como su uso para fines comerciales.