Attitude Adjustment



E|---------------------------|--5----3/2---2----3--3----|
B|---------------------------|----3------3---3--3-------|
G|------------------7-7------|--------------------------|
D|--5/4---4---5-----7-7-(7)--|--------------------------|
A|--3/2-0-2-0-3-x-0-5-5-(5)--|--------------------------|
E|---------------------------|--------------------------|


E|---------------------------------------------------------------|
B|---------------------------------------------------------------|
G|--------3--3-3--------------2--2-2---------------0--0-0--------|
D|--3h4h5--------5p4p3--2h3h4--------4-3-2---0h1h2--------2p1p0--|
A|---------------------------------------------------------------|
E|---------------------------------------------------------------|


E|-------------------------|
B|-------------------------|
G|--------0--0-0-----------|
D|--0h1h2--------2p1p0-----|
A|-------------------------|
E|-------------------------|


   

E|-------------------|
B|-------------------|
G|--------------3----|
D|--------3-4-5---5--|
A|--3-4-5------------|
E|-------------------|


Aerosmith
(Guitar chords, ukelele, keyboard, tabs, bass, drums and lyrics)

Este fichero es trabajo propio de su transcriptor y representa su interpretación personal de la canción. El material contenido en esta página es para exclusivo uso privado, por lo que se prohibe su reproducción o retransmisión, así como su uso para fines comerciales.