Rock The House


Primeiro Riff:


E|---------------------------------------------------| 
B|---------------------------------------------------|
G|--2------------------------------------------------|
D|----4^2---2----------------------------------------|
A|--------4---4-3-2---2-0----------------------------|
E|------------------2-----2--------------------------|


E|---------------------------------------------------|
B|---------------------------------------------------|
G|--2------------------------------------------------|
D|----4^2---2-------2--------------------------------|
A|--------4---2-3-4---4-2^0--------------------------|
E|--------------------------2------------------------|


--------------------- // ---------------------


E|---------------------------------------------------|
B|---------------------------------------------------|
G|--4--2---------------------------------------------|
D|--4--2--4------------------------------------------|
A|--2--0--4------------------------------------------|
E|--------2------------------------------------------|


AC/DC
        C        
 (Guitar chords, ukelele, keyboard, tabs, bass, drums and lyrics)

Este fichero es trabajo propio de su transcriptor y representa su interpretación personal de la canción. El material contenido en esta página es para exclusivo uso privado, por lo que se prohibe su reproducción o retransmisión, así como su uso para fines comerciales.