Rock Or Bust


Afinaçϣo: 1/4 abaixo 

Intro:


E|---------------------------------------------------------------------------|
B|-----------------------3-3-3-----------------------------------------------|
G|-----4-4-4-4-----------2-2-2---2-2-2---1-1-1-------------------------------| Main Riff 
D|-----4-4-4-4-----------0-0-0---2-2-2---2-2-2-------------------------------|                         
A|-----2-2-2-2-------------------0-0-0---2-2-2-------------------------------|
E|---------------------------------------0-0-0-------------------------------|


E|---------------------------------------------------------------------------|
B|-----------------------3-3-3-----------------------------------------------| 
G|-----4-4-4-4-----------2-2-2---2-2-2---1-1-1-------------------------------| 
D|-----4-4-4-4-----------0-0-0---2-2-2---2-2-2-------------------------------|         
A|-----2-2-2-2-------------------0-0-0---2-2-2-------------------------------|
E|---------------------------------------0-0-0-------------------------------|


Verso:


E|---------------------------------------------------------------------------|
B|---------------------------------------------------------------------------|
G|-----------4---------------------------------------------------------------|  
D|-----------4---------------------------------------------------------------|   4x                       
A|-----------2-------------------0--2----------------------------------------|
E|---------------------------------------------------------------------------|


              "hey yeah!"

E|---------------------------------------------------------------------------|
B|-----------------------3-3-3-----------------------------------------------|
G|-----4-4-4-4-----------2-2-2---2-2-2---1-1-1-------------------------------| 
D|-----4-4-4-4-----------0-0-0---2-2-2---2-2-2-------------------------------|         
A|-----2-2-2-2-------------------0-0-0---2-2-2-------------------------------|
E|---------------------------------------0-0-0-------------------------------|


                "are ya ready?"

E|---------------------------------------------------------------------------|
B|-----------------------3-3-3-----------------------------------------------|
G|-----4-4-4-4-----------2-2-2---2-2-2---1-1-1-------------------------------| 
D|-----4-4-4-4-----------0-0-0---2-2-2---2-2-2-------------------------------|         
A|-----2-2-2-2-------------------0-0-0---2-2-2-------------------------------|
E|---------------------------------------0-0-0-------------------------------|


E|---------------------------------------------------------------------------|
B|-----------------------3-3-3-----------------------------------------------|
G|-----4-4-4-4-----------2-2-2---2-2-2---1-1-1-------------------------------| 
D|-----4-4-4-4-----------0-0-0---2-2-2---2-2-2-------------------------------|         
A|-----2-2-2-2-------------------0-0-0---2-2-2-------------------------------|
E|---------------------------------------0-0-0-------------------------------|


E|---------------------------------------------------------------------------|
B|-----------------------3-3-3-----------------------------------------------|
G|-----4-4-4-4-----------2-2-2---2-2-2---1-1-1-------------------------------| 
D|-----4-4-4-4-----------0-0-0---2-2-2---2-2-2-------------------------------|         
A|-----2-2-2-2-------------------0-0-0---2-2-2-------------------------------|
E|---------------------------------------0-0-0-------------------------------|


E|---------------------------------------------------------------------------|
B|-----------------------3-3-3-----------------------------------------------|
G|-----4-4-4-4-----------2-2-2---2-2-2---1-1-1-------------------------------| 
D|-----4-4-4-4-----------0-0-0---2-2-2---2-2-2-------------------------------|         
A|-----2-2-2-2-------------------0-0-0---2-2-2-------------------------------|
E|---------------------------------------0-0-0-------------------------------|


E|---------------------------------------------------------------------------|
B|-----------------------3-3-3-----------------------------------------------|
G|-----4-4-4-4-----------2-2-2---2-2-2---1-1-1-------------------------------| 
D|-----4-4-4-4-----------0-0-0---2-2-2---2-2-2-------------------------------|         
A|-----2-2-2-2-------------------0-0-0---2-2-2-------------------------------|
E|---------------------------------------0-0-0-------------------------------|


Refrϣo:

    "In Rock we trust............Its Rock or bust!" 

E|---------------------------------------------------------------------------|
B|---------------------------------------------------------------------------|
G|-----4-----------------1-----------4-----------------1---------------------|  
D|-----4-----------------2-----------4-----------------2---------------------|   2x                       
A|-----2-------0--2------2-----------2-------0--2------2---------------------|
E|-----------------------0-----------------------------0---------------------|


E|---------------------------------------------------------------------------|
B|-----------------------3-3-3-----------------------------------------------|
G|-----4-4-4-4-----------2-2-2---2-2-2---1-1-1-------------------------------| 
D|-----4-4-4-4-----------0-0-0---2-2-2---2-2-2-------------------------------|   2x        
A|-----2-2-2-2-------------------0-0-0---2-2-2-------------------------------|
E|---------------------------------------0-0-0-------------------------------|


E|---------------------------------------------------------------------------|
B|---------------------------------------------------------------------------|
G|-----4-----------------1-----------4-----------------1---------------------|  
D|-----4-----------------2-----------4-----------------2---------------------|                        
A|-----2-------0--2------2-----------2-------0--2------2---------------------|
E|-----------------------0-----------------------------0---------------------|


E|---------------------------------------------------------------------------|
B|-------------------------------3-3-3---------------------------------------|
G|-----4-----------------1-------2-2-2---2-2-2---1-1-1-----------------------|  
D|-----4-----------------2-------0-0-0---2-2-2---2-2-2-----------------------|                        
A|-----2-------0--2------2---------------0-0-0---2-2-2-----------------------|
E|-----------------------0-----------------------0-0-0-----------------------|


Verso:

       "We hear the sirens scream..."

E|---------------------------------------------------------------------------|
B|-----------------------3-3-3-----------------------------------------------|
G|-----4-4-4-4-----------2-2-2---2-2-2---1-1-1-------------------------------| 
D|-----4-4-4-4-----------0-0-0---2-2-2---2-2-2-------------------------------|         
A|-----2-2-2-2-------------------0-0-0---2-2-2-------------------------------|
E|---------------------------------------0-0-0-------------------------------|


E|---------------------------------------------------------------------------|
B|-----------------------3-3-3-----------------------------------------------|
G|-----4-4-4-4-----------2-2-2---2-2-2---1-1-1-------------------------------| 
D|-----4-4-4-4-----------0-0-0---2-2-2---2-2-2-------------------------------|         
A|-----2-2-2-2-------------------0-0-0---2-2-2-------------------------------|
E|---------------------------------------0-0-0-------------------------------|


E|---------------------------------------------------------------------------|
B|-----------------------3-3-3-----------------------------------------------|
G|-----4-4-4-4-----------2-2-2---2-2-2---1-1-1-------------------------------| 
D|-----4-4-4-4-----------0-0-0---2-2-2---2-2-2-------------------------------|         
A|-----2-2-2-2-------------------0-0-0---2-2-2-------------------------------|
E|---------------------------------------0-0-0-------------------------------|


E|---------------------------------------------------------------------------|
B|-----------------------3-3-3-----------------------------------------------|
G|-----4-4-4-4-----------2-2-2---2-2-2---1-1-1-------------------------------| 
D|-----4-4-4-4-----------0-0-0---2-2-2---2-2-2-------------------------------|         
A|-----2-2-2-2-------------------0-0-0---2-2-2-------------------------------|
E|---------------------------------------0-0-0-------------------------------|


Refrϣo:

    "In Rock we trust............Its Rock or bust!" 

E|---------------------------------------------------------------------------|
B|---------------------------------------------------------------------------|
G|-----4-----------------1-----------4-----------------1---------------------|  
D|-----4-----------------2-----------4-----------------2---------------------|   2x                       
A|-----2-------0--2------2-----------2-------0--2------2---------------------|
E|-----------------------0-----------------------------0---------------------|


E|---------------------------------------------------------------------------|
B|-----------------------3-3-3-----------------------------------------------|
G|-----4-4-4-4-----------2-2-2---2-2-2---1-1-1-------------------------------| 
D|-----4-4-4-4-----------0-0-0---2-2-2---2-2-2-------------------------------|   2x        
A|-----2-2-2-2-------------------0-0-0---2-2-2-------------------------------|
E|---------------------------------------0-0-0-------------------------------|


Solo backing:


E|---------------------------3------------------------------------------------|
B|---------------------------3---3--------------------------------------------|
G|----1--1-----4-------------0---2------2----1-------1--1-----4---------------|  
D|----2--2-----4------  4x-----0---0------2----2-------2--2-----4---------------|                       
A|----2--2-----2-------------x----------0----2-------2--2-----2---------------|
E|----0--0-------------------3---------------0-------0--0---------------------|


E|-----------------------------------------------------------|
B|-------3-3-3-----------------------------------------------|
G|-------2-2-2---2-2-2---1-1-1-------------------------------| 
D|-------0-0-0---2-2-2---2-2-2-------------------------------|         
A|---------------0-0-0---2-2-2-------------------------------|
E|-----------------------0-0-0-------------------------------|


Refrϣo:

    "In Rock we trust............Its Rock or bust!" 

E|---------------------------------------------------------------------------|
B|---------------------------------------------------------------------------|
G|-----4-----------------1-----------4-----------------1---------------------|  
D|-----4-----------------2-----------4-----------------2---------------------|   2x                       
A|-----2-------0--2------2-----------2-------0--2------2---------------------|
E|-----------------------0-----------------------------0---------------------|


E|---------------------------------------------------------------------------|
B|-----------------------3-3-3-----------------------------------------------|
G|-----4-4-4-4-----------2-2-2---2-2-2---1-1-1-------------------------------| 
D|-----4-4-4-4-----------0-0-0---2-2-2---2-2-2-------------------------------|   2x        
A|-----2-2-2-2-------------------0-0-0---2-2-2-------------------------------|
E|---------------------------------------0-0-0-------------------------------|


Solo backing:


E|---------------------------3------------------------------------------------|
B|---------------------------3---3--------------------------------------------|
G|----1--1-----4-------------0---2------2----1-------1--1-----4----1--1----4--|  
D|----2--2-----4------  4x-----0---0------2----2-------2--2-----4----2--2----4--|                       
A|----2--2-----2-------------x----------0----2-------2--2-----2----2--2----2--|
E|----0--0-------------------3---------------0-------0--0----------0--0-------|




AC/DC
        C        
 (Guitar chords, ukelele, keyboard, tabs, bass, drums and lyrics)

Este fichero es trabajo propio de su transcriptor y representa su interpretación personal de la canción. El material contenido en esta página es para exclusivo uso privado, por lo que se prohibe su reproducción o retransmisión, así como su uso para fines comerciales.