Overdose


 Intro:

E|-----------------2--------|------------------|-----------------0--------|
B|------------0-------------|------------------|------------0-------------|
G|-------2------------------|------------------|-------1------------------|
D|--------------------------|------------------|--------------------------|
A|--2-----------------------|------------------|--------------------------|
E|--------------------------|------------------|--0-----------------------|


|------------------|-----------------2--------|------------------|
|------------------|------------0-------------|------------------|
|------------------|-------2------------------|------------------|
|------------------|--------------------------|------------------|
|------------------|--2-----------------------|------------------|
|------------------|--------------------------|------------------|

                                                with drum/bass:

|-----------------0--------|-------------------|-----------------2--------|
|------------0-------------|-------------------|------------0-------------|
|-------1------------------|--1----------------|-------2------------------|
|--------------------------|--2----------------|--------------------------|
|--------------------------|--2----------------|--2-----------------------|
|--0-----------------------|--0----------------|--------------------------|


|------------------|-----------------0--------|------------------|
|------------------|------------0-------------|------------------|
|------------------|-------1------------------|------------------|
|------------------|--------------------------|------------------|
|------------------|--------------------------|------------------|
|------------------|--0-----------------------|------------------|


|-----------------2--------|------------------|-----------------0--------|
|------------0-------------|------------------|------------0-------------|
|-------2------------------|------------------|-------1------------------|
|--------------------------|------------------|--------------------------|
|--2-----------------------|------------------|--------------------------|
|--------------------------|------------------|--0-----------------------|

                    with 2nd guitar:

|------------------|-----------------2--------|------------------|
|------------------|------------0-------------|------------------|
|------------------|-------2------------------|------------------|
|------------------|--------------------------|------------------|
|------------------|--2-----------------------|------------------|
|------------------|--------------------------|------------------|


|-----------------0--------|------------------|-----------------2--------|
|------------0-------------|------------------|------------0-------------|
|-------1------------------|------------------|-------2------------------|
|--------------------------|------------------|--------------------------|
|--------------------------|------------------|--2-----------------------|
|--0-----------------------|------------------|--------------------------|

                                                             verse riff:

|------------------|-----------------0--------|-------------------|
|------------------|------------0-------------|-------------------|
|------------------|-------1------------------|----------------4--|
|------------------|--------------------------|----------------4--|
|------------------|--------------------------|----------------2--|
|------------------|--0-----------------------|-------------------|


|----------------------|----------------------|----------------------|
|------3---------------|------3---------------|------3---------------|
|------2------------4--|------2------------4--|------2------------4--|
|------0----2-------4--|------0----2-------4--|------0----2-------4--|
|-----------2----x--2--|-----------2----x--2--|-----------2----x--2--|
|-----------0----x-----|-----------0----x-----|-----------0----x-----|

                       C
        C        
horus: I overdosed on you |----------------------|----------------------|--------------------| |------3---------------|----------------------|-----------------3--| |------2------------4--|------4----4--4--4----|--1--------------2--| |------0----2-------4--|------4----4--4--4----|--2--------------0--| |-----------2----x--2--|------2----2--2--2----|--2-----------------| |-----------0----x-----|----------------------|--0-----------------| |------------------|--------------------|------------------|--------------------| |------------------|-----------------3--|------------------|-----------------3--| |------------------|--1--------------2--|------------------|--1--------------2--| |------------------|--2--------------0--|------------------|--2--------------0--| |------------------|--2-----------------|------------------|--2-----------------| |------------------|--0-----------------|------------------|--0-----------------| |------------------|-------------------|----------------------| |------------------|-------------------|--3------3----3-------| |------------------|--1----------------|--2------2----2----4--| |------------------|--2----------------|--0------0----0----4--| |------------------|--2----------------|-------------------2--| |------------------|--0----------------|----------------------| |----------------------| |------3---------------| |------2------------4--| |------0----2-------4--| |-----------2----x--2--| |-----------0----x-----|

AC/DC
        C        
 (Guitar chords, ukelele, keyboard, tabs, bass, drums and lyrics)

Este fichero es trabajo propio de su transcriptor y representa su interpretación personal de la canción. El material contenido en esta página es para exclusivo uso privado, por lo que se prohibe su reproducción o retransmisión, así como su uso para fines comerciales.