Hell Or High Water



E--5-5-3-3-2-2-3-3------|
B--5-5-5-5-5-5-5-5------|
G-----------------------|
D-----------------------|
A-----------------------|
E-----------------------|reapeat


E----------||---------||
B----------||---------||
G---2-2----||---2-2---||
D---2-2----||---2-2---||
A---0-0----||---0-0---||
E----------||---------||

chorus

|---------------------|--5-5-3-3-5-5--------|
|---------------------|--5-5-5-5-5-5--------|
|--4--7--4--2-----4---|---------------------|
|--4--7--4--2--2--4---|---------------------|
|--2--5--2--0--2--2---|---------------------|
|--------------0------|---------------------|


AC/DC
        C        
 (Guitar chords, ukelele, keyboard, tabs, bass, drums and lyrics)

Este fichero es trabajo propio de su transcriptor y representa su interpretación personal de la canción. El material contenido en esta página es para exclusivo uso privado, por lo que se prohibe su reproducción o retransmisión, así como su uso para fines comerciales.