Have A Drink



|-------------------|---------------------------------------|---------
|-------8~~~--8-----|-------8-------------------------------|---------
|--7/9--------9~~~--|--7/9-----97p5-----7------5-----------|--5------
|-------------------|-----------------7---------------7-----|--5h6----
|-------------------|------------------------------------0--|--0------
|-------------------|---------------------------------------|---------


----------------------|------------------------------------------|----
-------------7--------|-------------8----------------------------|----
-------------7--------|--------7/9-----97p5-----7---5-----------|----
-------------7--------|-----------------------7------------7-----|----
----0-----0--0-----0--|---------------------------------------0--|----
----------------------|------------------------------------------|----


-----------------------------|---------------------------------|------
--------------7--------------|-------8-------------------------|------
5h6-----------7--------------|--7/9-----97p5-----7---5--------|------
5-------------7--------------|-----------------7---------7-----|------
0----0-----0--0-----------0--|------------------------------0--|------
-----------------------------|---------------------------------|------


------------------------|-------------------------------|-------------
---------3--------------|-------------2-----------------|-------------
2--------2--------------|--5-------5--2-----------------|--5h6--------
2--------0--------------|--5-------5--2-----------------|--5----------
0-----0--0-----------0--|--3p0-----3--0--------0-----0--|--0----0-----
------------------------|-------------------------------|-------------


---------------------|---------------------------------|--------------
---------------------|-------8-------------------------|--------------
---------7-----------|--7/9-----97p5-----7---5--------|--5h6---------
---------7-----------|-----------------7---------7-----|--5-----------
---0-----0--------0--|------------------------------0--|--0----0------
---------------------|---------------------------------|--------------


---------------------|--------------------------------|---------------
---------7-----------|-----------------2--------------|---------------
---------7-----------|--5-----------5--2--------------|--5h6----------
---------7-----------|--5-----------5--2--------------|--5------------
---0-----0--------0--|--3-----0-----3--0-----------0--|--0----0-------
---------------------|--------------------------------|---------------


------|------------------------------------------|--------------------
---7--|----------8-------------------------------|--------------------
---7--|-----7/9-----97p5-----7---5--------------|--5h6---------------
---7--|--------------------7--7---------7--------|--5-----------------
0--0--|--------------------0--0---------0-----0--|--0----0-----0------
------|------------------------------------------|--------------------


---------------|---------------------------||---------||--------------
7--------------|-----------2---------------||---------||--------------
7--------------|--5--------2------2-----0--||---------||*-------------
7-----0--------|--5--------2---------------||---------||*--5-----4----
0-----0-----0--|--3--0--3--0---------------||---------||---0-----0----
---------------|---------------------------||---------||--------------


------------------------|---------------------------------------------
------------------------|---------------------------------------------
------------------------|---------------------------------------------
5-----------------------|-----------5--5--4--5-----------7------------
0---(0)--(0)--(0)--(0)--|---(0)-----0--0--0--0---(0)-----0---(0)------
------------------------|---------------------------------------------


-||----------------------------|---------------------------|----------
-||----------------------------|---------------------------|----------
*||-------------------------2--|---------------------------|----------
*||---5--5--4--5------2--2--2--|--5--5--4--5-------7-------|--5--5----
-||---0--0--0--0---0--0--0--0--|--0--0--0--0--(0)--0--(0)--|--0--0----
-||----------------------------|---------------------------|----------


---------------3--|---------------------------|-----------------------
---------3--3--3--|---------------------------|-----------------3-----
---------0--0--0--|---------------------------|-----------------2-----
4--5-----0--0--0--|--5--5--4--5--------7------|--5--5--4--5-----0-----
0--0--0-----------|--0--0--0--0---(0)--0---0--|--0--0--0--0--0--0-----
---------3--3--3--|---------------------------|-----------------------


------|---------------------------|--2--------2-----------|--1--------
3--3--|---------------------------|--3--------3-----------|--1--------
2--2--|---------------------------|--2--------2-----2--2--|--2--------
0--0--|--5--5--4--5-----7---0--0--|--0-----0--0-----0--0--|--3--------
0--0--|--0--0--0--0--0--0---------|-----------------------|--3--------
------|---------------------------|-----------------------|--1--------


------3------------------||--------------------|----------------------
------3------------------||-------------7------|----------8-----------
------0---------3--------||--5h6--------7------|-----7/9-----9p7------
------0---------3--------||--5----------7---7--|----------------------
-------------------------||--0-------0--0------|----------------------
0-----3---------3-----0--||--------------------|----------------------


-----------------------|--------------------------|-------------------
-----------------------|-----------7--------------|-------------------
p5-----7---5-----------|--6--------7--------------|--5-----5--2-------
----7--7---------7--0--|--5-----0--7--------0--0--|--5-----5--2-------
----0--0---------0--0--|--0--0--0--0--------0--0--|--3--0--3--0-------
-----------------------|--------------------------|-------------------


------------|-------------------|-------------------------------------
------------|----------------7--|-------8------------7----------------
------------|--5h6-----------7--|--7/9-----97p5-----7---5------------
------------|--5-------------7--|-----------------7---------7--0------
---0-----0--|--0----0-----0--0--|-----------------0---------0--0------
------------|-------------------|-------------------------------------


|-----------------------|---------------------------|-----------------
|--------3--------------|---------------------------|-----------------
|--2-----2--------------|--5--------2---------------|-----------------
|--2-----0--------0-----|--5--------2---------------|--5-----4--5-----
|--0--0--0-----------0--|--3--0--3--0------0-----0--|--0-----0--0-----
|-----------------------|---------------------------|-----------------


-----------|---------------------------|-------------------------|----
-----------|---------------------------|-------------------------|----
-----------|---------------------------|-------------------------|----
-----------|--5--5--4--5-------7-------|--5--5--4--5-------------|----
------(0)--|--0--0--0--0--(0)--0--(0)--|--0--0--0--0--------(0)--|----
-----------|---------------------------|-------------------------|----


--------------------------||---|--------------||----------------------
--------------------------||---|--x--x--5~~~--||--3--0----------------
--------------------------||---|--------------||--------2--0--2-------
5--5--4--5--------7-------||---|--------------||----------------------
0--0--0--0---(0)--0--(0)--||---|--------------||----------------------
--------------------------||---|--------------||----------------------


---------|-----------------------------|----0--0--0-------------------
---------|---3-------------------------|-------------3--0--3--0-------
-(2)-----|---------(2)p0------------2--|p0-----------------------2----
---------|----------------2~~~--x------|------------------------------
---------|-----------------------------|------------------------------
---------|-----------------------------|------------------------------


------------------|---------------------------------------|-----------
------------------|-----3-----3-----3~~~-------5-----7p5--|---7-------
0---2-----2--0--2/|--4--------4-----------4/6--6----------|-----------
------------------|---------------------------------------|-----------
------------------|---------------------------------------|-----------
------------------|---------------------------------------|-----------


0------------------------------------------|------------0-------------
----7---------7---------7---------7--------|------7---------7---------
----------9---------9---------9---------9--|--------------------------
-------------------------------------------|--------------------------
-------------------------------------------|--------------------------
-------------------------------------------|--------------------------


--------------0------0-------|----------------------------------------
-------7------7------7--(7)--|--5--8--7p5-----5-----5~~~--(5)p2-------
9----------------------------|-------------6-----6---------------0----
-----------------------------|----------------------------------------
-----------------------------|----------------------------------------
-----------------------------|----------------------------------------


0---------|--0--0--7-------------------------------|------------------
---0---8--|--0-----8------------0------------5--5--|------------5-----
----------|-----------9~~~--(9)-------7-----------|---7--------------
----------|----------------------------------------|------------------
----------|----------------------------------------|------------------
----------|----------------------------------------|------------------


--------------------------------------------------------|--7----------
5-----5--5---------5--5---------5--5---------5---7------|-----7-------
---6---------7------------7------------7----------------|-------------
--------------------------------------------------------|-------------
--------------------------------------------------------|-------------
--------------------------------------------------------|-------------


-------7---------7------7-------7--|-----5----------------------------
-7---------7---------7----------7--|--------5--8--7--5-----5--5-------
-----------------------------------|--------------------6-------------
-----------------------------------|----------------------------------
-----------------------------------|----------------------------------
-----------------------------------|----------------------------------


------------|---------------------------------------------------------
(5)-------|--15------15-----------15------15------------------------
----0---14--|----------14-----------14------14--------(14)-----12-----
------------|---------------------------------------------------------
------------|---------------------------------------------------------
------------|---------------------------------------------------------


|-----------------------------15--|---(15)----------------------------
|--12-----------------------------|------------17p15------15~~~-------
|------12------12--12--(12)4/----|-------------------16--------------
|----------14---------------------|-----------------------------------
|---------------------------------|-----------------------------------
|---------------------------------|-----------------------------------


-------------------|--------------------------------------------------
(15)--------------|-------15-----------------------------------------
---------------12--|---14-------14------14~~~-------------------------
--------10/14------|--------------------------------------------------
-------------------|--------------------------------------------------
-------------------|--------------------------------------------------


------||-----------------------||-------------------------------------
------||-----------------------||-------------------------------------
-(14)||-----------------------||*------------------------------------
------||-----------------------||*------------------------------------
------||-----------------------||-------------------------------------
------||-----------------------||-------------------------------------


----------2--------------|-----------2-----------------|--------------
----------3--------3-----|-----------3-----------------|--------------
-2-----2--2--------2--0--|--------0--2--------2--2--2--|--2-----0-----
-2-----2--0--------0--0--|--5-----0--0--------2--2--2--|--2-----0-----
-0-----0--0--------0-----|--5-----------------0--------|--0-----------
-------------------------|--3--------------------------|--------------


2--------------|--------------2------------||-------------------------
3--------------|--3-----------3------------||-------------------------
2--------0-----|--0-----------2-----2-----*||-------------------------
0--------0--5--|--0-----------0-----0--2--*||-------------------------
0-----------5--|--------------0--------0---||-------------------------
------------3--|--3-----3------------------||-------------------------


AC/DC
        C        
 (Guitar chords, ukelele, keyboard, tabs, bass, drums and lyrics)

Este fichero es trabajo propio de su transcriptor y representa su interpretación personal de la canción. El material contenido en esta página es para exclusivo uso privado, por lo que se prohibe su reproducción o retransmisión, así como su uso para fines comerciales.