Hail Caeser


Riff-1

E|-------------------|----------------------
B|-------------------|----------------------
G|-------------------|----------------------
D|-------------------|----------------------
A|--5--0--5--0--5--57|--5--0--5--0--5--0--57
E|--3--0--3--0--3--35|--3--0--3--0--3--0--35


E|-------------------|----------------------
B|-------------------|----------------------
G|-------------------|----------------------
D|-------------------|----------------------
A|--5--0--5--0--5--57|--5--0--5--0--5--0--57
E|--3--0--3--0--3--35|--3--0--3--0--3--0--35


E|-------------------|----------------------
B|-------------------|----------------------
G|-------------------|----------------------
D|-------------------|----------------------
A|--5--0--5--0--5--57|--5--0--5--0--5--0--57
E|--3--0--3--0--3--35|--3--0--3--0--3--0--35


E|-------------------|----------------------
B|-------------------|----------------------
G|-------------------|----------------------
D|-------------------|----------------------
A|--5--0--5--0--5--57|--5--0--5--0--5--0--57
E|--3--0--3--0--3--35|--3--0--3--0--3--0--35


E|-------------------|----------------------
B|-------------------|----------------------
G|-------------------|----------------------
D|-------------------|----------------------
A|--5--0--5--0--5--57|--5--0--5--0--5--0--57
E|--3--0--3--0--3--35|--3--0--3--0--3--0--35


E|-------------------|----------------------
B|-------------------|----------------------
G|-------------------|----------------------       
D|-------------------|----------------------
A|--5--0--5--0--5--57|--5--0--5--0--5--0--57
E|--3--0--3--0--3--35|--3--0--3--0--3--0--35


E|-------------------|----------------------
B|-------------------|----------------------
G|-------------------|----------------------
D|-------------------|----------------------
A|--5--0--5--0--5--57|--5--0--5--0--5--0--57
E|--3--0--3--0--3--35|--3--0--3--0--3--0--35


E|-----------------------------------------
B|-----------------------------------------
G|-----------------------------------------
D|-----------------------------------------
A|-----5-------5-------5-------5-------5---
E|--57---5--57---5--57---5--57---5--57---5-


E|-------------------|----------------------
B|-------------------|----------------------
G|-------------------|----------------------
D|-------------------|----------------------
A|-----5-------------|5--0--5--0--5--0--57--
E|--57---5-----------|3--0--3--0--3--0--35--


AC/DC
        C        
 (Guitar chords, ukelele, keyboard, tabs, bass, drums and lyrics)

Este fichero es trabajo propio de su transcriptor y representa su interpretación personal de la canción. El material contenido en esta página es para exclusivo uso privado, por lo que se prohibe su reproducción o retransmisión, así como su uso para fines comerciales.