Hail Caesar


Standard Tuning 

This is my first tab ever, my own work and I believe it to be the most
accurate on the web for this song.
 


E|-----------------|
B|-----------------|
G|-----------------|X6
D|---------------2-|
A|-2-2-2-2-2-2-2-0-|
E|-3-0-3-0-3-0-3---|

 


D|-----------|
A|-----------| X4
E|-0-3-5-3-0-|

 

          ....Keeps lickin' all the honey...


e|----------|-----------|------------|------------|----------|
B|----------|-----------|------------|-----------3|----------|
G|----------|-----------|------------|-----------2|----------|
D|----------|-----------|------------|-----------0|----------|
A|-----2----|-----2-----|-0-3-5-0-3-0|-3-0--3-----|-4---2----|
E|-2-5--5-2-|-2-5---5-2-|------------|------------|-2-5---5-2|


 

..TO THE
        E        
 LIONS e|-----------|--------------------| B|-----------|--------------------| G|-----------|--------------------| D|-----------|--------------------| A|-----2-----|-252225222522252225~| E|-2-5---5-2-|--------------------| Chorus is same as opening lick. Verse two starts at the second lick and repeats from there. E
        E        
njoy!

AC/DC
        C        
 (Guitar chords, ukelele, keyboard, tabs, bass, drums and lyrics)

Este fichero es trabajo propio de su transcriptor y representa su interpretación personal de la canción. El material contenido en esta página es para exclusivo uso privado, por lo que se prohibe su reproducción o retransmisión, así como su uso para fines comerciales.