Gone Shootin'


  Intro:

E|----------------2--|------------------|-------------------2--|
B|----------------2--|------------------|-------------------2--|
G|-------------------|------------------|----------------------|
D|-------------------|------------------|--------2-------------|
A|-------------------|------------------|----2-4---------------|
E|-------------------|------------------|----------------------|


|------------------|-------------------2--|------------------|
|------------------|-------------------2--|------------------|
|------------------|----------------------|------------------|
|------------------|--------2-------------|------------------|
|------------------|----2-4---------------|------------------|
|------------------|----------------------|------------------|


|-------------------2--|------------------|-------------------2--|
|-------------------2--|------------------|-------------------2--|
|----------------------|------------------|----------------------|
|--------2-------------|------------------|--------2-------------|
|----2-4---------------|------------------|----2-4---------------|
|----------------------|------------------|----------------------|


|------------------|-------------------2--|------------------|
|------------------|-------------------2--|------------------|
|------------------|----------------------|------------------|
|------------------|--------2-------------|------------------|
|------------------|----2-4---------------|------------------|
|------------------|----------------------|------------------|


 Verse:

|-----2------0----0----|----------------------2---|
|-----2------2----0----|--4-----------------------|
|----------------------|--4----2-3--------2-3-----|
|----------------------|-----------4--------------|
|----------------------|--------------------------|
|----------------------|--------------------------|


to C
        C        
horus: |----2------0----0----|------------------------|------------------| |----2------2----0----|--4---------------------|------------------| |---------------------|--4----2-3-----------6--|------------------| |---------------------|-----------4---------6--|------------------| |---------------------|------------------2--4--|------------------| |---------------------|------------------------|------------------| |-------------------|-------------------|------------------| |-------------------|-------------------|------------------| |----------------4--|----------------2--|------------------| |----------------4--|----------------2--|------------------| |----------------2--|----------------0--|------------------| |-------------------|-------------------|------------------|

AC/DC
        C        
 (Guitar chords, ukelele, keyboard, tabs, bass, drums and lyrics)

Este fichero es trabajo propio de su transcriptor y representa su interpretación personal de la canción. El material contenido en esta página es para exclusivo uso privado, por lo que se prohibe su reproducción o retransmisión, así como su uso para fines comerciales.