Go Down


 Intro:

E|---------------------|------------------|---------------------|
B|---------------------|------------------|---------------------|
G|------------2--5--2--|------------------|------------2--5--2--|
D|------------2--5--2--|------------------|------------2--5--2--|
A|------------0--3--0--|------------------|------------0--3--0--|
E|---------------------|------------------|---------------------|


|------------------|---------------------|---------------------|
|------------------|---------------------|---------------------|
|------------------|------------2--5--2--|------------2--5--2--|
|------------------|------------2--5--2--|------------2--5--2--|
|------------------|------------0--3--0--|------------0--3--0--|
|------------------|---------------------|---------------------|


|---------------------|------------------------|------------------------|
|---------------------|------------------------|------------------------|
|------------2--5--2--|----2--5--2----2--5--2--|----2--5--2----2--5--2--|
|------------2--5--2--|----2--5--2----2--5--2--|----2--5--2----2--5--2--|
|------------0--3--0--|----0--3--0----0--3--0--|----0--3--0----0--3--0--|
|---------------------|------------------------|------------------------|


 Verse:

|----------------------|----------------------|----------------------|
|----------------------|----------------------|----------------------|
|----2------2----0--2--|----2------2----0--2--|----2------2----0--2--|
|----2------2----0--2--|----2------2----0--2--|----2------2----0--2--|
|----0------0-------0--|----0------0-------0--|----0------0-------0--|
|----------------------|----------------------|----------------------|


|----------------------|----------------------|----------------------|
|----------------------|----------------------|----------------------|
|----2------2----0--2--|----2------2----0--2--|----2------2----0--2--|
|----2------2----0--2--|----2------2----0--2--|----2------2----0--2--|
|----0------0-------0--|----0------0-------0--|----0------0-------0--|
|----------------------|----------------------|----------------------|

                                     C
        C        
hord C
        C        
hange |----------------------|----------------------|----------------------| |----------------------|----------------------|----------------------| |----2------2----0--2--|----2------2----5--7--|----7------7----5--7--| |----2------2----0--2--|----2------2----5--7--|----7------7----5--7--| |----0------0-------0--|----0------0----3--5--|----5------5----3--5--| |----------------------|----------------------|----------------------|  C
        C        
hord C
        C        
hange |----------------------|----------------------|----------------------| |----------------------|----------------------|----------------------| |----7------7----5--7--|----7------7----5--7--|----7------7----7--9--| |----7------7----5--7--|----7------7----5--7--|----7------7----7--9--| |----5------5----3--5--|----5------5----3--5--|----5------5----5--7--| |----------------------|----------------------|----------------------| |----------------------|----------------------|----------------------| |----------------------|----------------------|----------------------| |----9------9----7--9--|----9------9----7--9--|----9------9----7--9--| |----9------9----7--9--|----9------9----7--9--|----9------9----7--9--| |----7------7----5--7--|----7------7----5--7--|----7------7----5--7--| |----------------------|----------------------|----------------------|  G
        G        
D
        D        
own  G
        G        
D
        D        
own... |----------------------|--------------------|--------------------| |----------------------|--------------------|--------------------| |----9------9----5--2--|--------------5--2--|--------------5--2--| |----9------9----5--2--|--------------5--2--|--------------5--2--| |----7------7----3--0--|--------------3--0--|--------------3--0--| |----------------------|--------------------|--------------------| |----------------------|--------------------|--------------------| |----------------------|--------------------|--------------------| |------5--2------5--2--|--------------5--2--|--------------5--2--| |------5--2------5--2--|--------------5--2--|--------------5--2--| |------3--0------3--0--|--------------3--0--|--------------3--0--| |----------------------|--------------------|--------------------| |--------------------|----------------------|------------------| |--------------------|----------------------|------------------| |--------------5--2--|------5--2------5--2--|------------------| |--------------5--2--|------5--2------5--2--|------------------| |--------------3--0--|------3--0------3--0--|------------------| |--------------------|----------------------|------------------|

AC/DC
        C        
 (Guitar chords, ukelele, keyboard, tabs, bass, drums and lyrics)

Este fichero es trabajo propio de su transcriptor y representa su interpretación personal de la canción. El material contenido en esta página es para exclusivo uso privado, por lo que se prohibe su reproducción o retransmisión, así como su uso para fines comerciales.