Gimme A Bullet


  Intro

E|-----------------------|-----------------------|-----------------------|
B|-----------------------|-----------------------|-----------------------|
G|---------------2----0--|---------------2----0--|---------------0----2--|
D|--2----2-------2----0--|--2----2-------2----0--|--2----2-------0----2--|
A|--0----0----3b---------|--0----0----3b---------|--0----0----3b---------|
E|-----------------------|-----------------------|-----------------------|


                         2nd guitar

|-----------------------|---------------------|--------------------|
|-----------------------|-------------3----3--|------------3----3--|
|---------------2----2--|--2----------0----0--|------------0----0--|
|--2----2-------2----2--|--2----------4----5--|------------4----5--|
|--0----0----3b---------|--0------------------|--------------------|
|-----------------------|---------------------|--------------------|


|--------------------|------------------|---------------------|
|------------3-------|------------------|-------------3----3--|
|------------0----2--|------------------|--2----------0----0--|
|------------4----2--|------------------|--2----------4----5--|
|-----------------0--|------------------|--0------------------|
|--------------------|------------------|---------------------|


|--------------------|--------------------|------------------|
|------------3----3--|------------3-------|------------------|
|------------0----0--|------------0----2--|------------------|
|------------4----5--|------------4----2--|------------------|
|--------------------|-----------------0--|------------------|
|--------------------|--------------------|------------------|


 Verse:

|------------------3--|-----------------3--|--------------------|
|-------------3----3--|------------3----3--|------------3-------|
|--2----------2----0--|------------2----0--|------------2----2--|
|--2----------0-------|------------0-------|------------0----2--|
|--0------------------|--------------------|-----------------0--|
|---------------------|--------------------|--------------------|


|------------------|------------------3--|-----------------3--|
|------------------|-------------3----3--|------------3----3--|
|------------------|--2----------2----0--|------------2----0--|
|------------------|--2----------0-------|------------0-------|
|------------------|--0------------------|--------------------|
|------------------|---------------------|--------------------|


                                             C
        C        
horus: |--------------------|----------------------|----------------------| |------------3-------|----------------------|----------------------| |------------2----2--|------2------2--2-----|--5----5------5----7--| |------------0----2--|------2------2--2-----|--5----5------5----7--| |-----------------0--|------0------0--0--0--|--3----3------3----5--| |--------------------|----------------------|----------------------| |----------------------|----------------------|-----------------------| |----------------------|----------------------|-----------------------| |------7------7--7-----|--5----5------5----7--|----7--7------7--7-----| |------7------7--7-----|--5----5------5----7--|----7--7------7--7-----| |------5------5--5--0--|--3----3------3----5--|----5--5------5--5--0--| |----------------------|----------------------|-----------------------| |----------------------|----------------------|------------------------| |----------------------|----------------------|------------------------| |--5----5------5----7--|------7------7--7-----|---------------------4--| |--5----5------5----7--|------7------7--7-----|--3----3----3--3--3--5--| |--3----3------3----5--|------5------5--5--0--|--3----3----3--3--3--5--| |----------------------|----------------------|--1----1----1--1--1--3--| |----------------------| |----------------------| |----4--4----4----4----| |----5--5----5----5----| |----5--5----5----5----| |----3--3----3----3----|

AC/DC
        C        
 (Guitar chords, ukelele, keyboard, tabs, bass, drums and lyrics)

Este fichero es trabajo propio de su transcriptor y representa su interpretación personal de la canción. El material contenido en esta página es para exclusivo uso privado, por lo que se prohibe su reproducción o retransmisión, así como su uso para fines comerciales.