First Blood



E--------------|
B---5^7-7--7---|<-- repeat
G---5^7-7--7---|
D---5^7-7--7---|
A---0----------|
E--------------|


main riff

E-------------------|
B----------8--------|
G----------7--7-----|
D--5--7----5--7--7--|
A--5--7-------5--7--|lead plays opening riff with this one ,untill vocals!
E--3--5----------5--|


|-----------|
|-----------|
|-----------|
|--5--7--7--|1st time go back to same riff, then 2nd play the foloowing riff!
|--5--7--7--|
|--3--5--5--|


E------------------------------|--------------------------|
B------------------------------|--------------------------|
G------------------------------|--------------------------|
D----3--3----3-3--3--3----3-3--|--5---5---5---5---5---5---|
A----3--3----3-3--3--3----3-3--|--5---5---5---5---5---5---|
E----1--1--0-1-1--1--1--0-1-1--|--3-3-3-3-3-3-3-3-3-3-3---|


chorus

E---------------------|-------------------------------|
B--------5-7-7-5-3-7--|--------5-7-7-5-3-7-8//\//--|
G-----5--5-7-7-5-3-7--|-----5--5-7-7-5-3-7------------|
D--7--5--5-7-7-5-3-7--|--7--5--5-7-7-5-3-7------------|
A--7--3---------------|--7--3-------------------------|
E--5------------------|--5----------------------------|x2


AC/DC
        C        
 (Guitar chords, ukelele, keyboard, tabs, bass, drums and lyrics)

Este fichero es trabajo propio de su transcriptor y representa su interpretación personal de la canción. El material contenido en esta página es para exclusivo uso privado, por lo que se prohibe su reproducción o retransmisión, así como su uso para fines comerciales.