Down Payment Blues


 Intro:

|--------------------|---------------------|-------------------|------------------------|
|--------------------|---------------------|-------------------|------------------------|
|--------------------|--2------------------|--2----------------|-----2-------2-------2--|
|---------------2-2--|--2-------------2-2--|--2----------------|--2--2----2--2----2--2--|
|---------------2-2--|--0-------------2-2--|--0----------------|--2--0----2--0----2--0--|
|---------------0-0--|----------------0-0--|-------------------|--0-------0-------0-----|


|--------------------|------------------|------------------|------------------------|
|--------------------|------------------|------------------|------------------------|
|--------------------|------------------|------------------|-----2-------2-------2--|
|----2--2------------|------------------|------------------|-----2-------2-------2--|
|----2--2------------|------------------|------------------|--2--0----2--0----2--0--|
|----0--0------------|------------------|------------------|--0-------0-------0-----|


|--------------------|------------------------|--------------------|
|--------------------|------------------------|--------------------|
|--------------------|-----2-------2-------2--|--------------------|
|-------2------------|-----2-------2-------2--|-------2------------|
|----2--2------------|--2--0----2--0----2--0--|----2--2------------|
|----0--0------------|--0-------0-------0-----|----0--0------------|


|------------------------|--------------------|------------------------|--------------------|
|------------------------|--------------------|------------------------|--------------------|
|-----4-------4-------4--|--------------------|-----4-------4-------4--|--------------------|
|-----4-------4-------4--|-------4------------|-----4-------4-------4--|-------4------------|
|--4--2----4--2----4--2--|----4--4------------|--4--2----4--2----4--2--|----4--4------------|
|--2-------2-------2-----|----2--2------------|--2-------2-------2-----|----2--2------------|

                                                Verse Riff:

|------------------------|--------------------|------------------------|--------------------|
|------------------------|--------------------|--7--9----7--9----7--9--|----7--7------------|
|-----7-------7-------7--|--------------------|--8--9----8--9----8--9--|----8--8------------|
|-----7-------7-------7--|-------7------------|--9--9----9--9----9--9--|----9--9------------|
|--7--5----7--5----7--5--|----7--7------------|--9--7----9--7----9--7--|----9--9------------|
|--5-------5-------5-----|----5--5------------|--7-------7-------7-----|----7--7------------|

  shoe string...

|------------------------|--------------------|
|--5--7----5--7----5--7--|----5--5------------|
|--6--7----6--7----6--7--|----6--6------------|
|--7--7----7--7----7--7--|----7--7------------|
|--7--5----7--5----7--5--|----7--7------------|
|--5-------5-------5-----|----5--5------------|

  millionaire...

|------------------------|--------------------|
|-----2-------2-------2--|--------------------|
|--1--2----1--2----1--2--|----1--1------------|
|--2--2----2--2----2--2--|----2--2------------|
|--2--0----2--0----2--0--|----2--2------------|
|--0-------0-------0-----|----0--0------------|


Chorus:       I got holes...                    and I'm way...

|--------------------|------------------|--------------------|
|-----3--------------|------------------|--------------------|
|--2--2--------------|------------------|-----2--------------|
|--2--0--------------|------------------|--2--2--------------|
|--0-----------------|------------------|--2--0--------------|
|--------------------|------------------|--0-----------------|

                                           down payment blues

|------------------|----------------------|------------------|
|------------------|-----9-------9--------|------------------|
|------------------|--8--9----8--9--------|------------------|
|------------------|--9--9----9--9--------|------------------|
|------------------|--9--7----9--7--------|------------------|
|------------------|--7-------7-----------|------------------|


AC/DC
        C        
 (Guitar chords, ukelele, keyboard, tabs, bass, drums and lyrics)

Este fichero es trabajo propio de su transcriptor y representa su interpretación personal de la canción. El material contenido en esta página es para exclusivo uso privado, por lo que se prohibe su reproducción o retransmisión, así como su uso para fines comerciales.