Dirty Eyes



e||---------------------------------||
B||---------------------------------||
G||--2--2---2---2--2----5---7---5b-o||
D||--2--2-4-2-4-2--2----5---7---5b-o||
A||--0--0-0-0-0-0--0--0-3-0-5-0-3b--||
E||---------------------------------||


e||------------------|------------------||
B||--3--3--3------3--|------------------||
G||--2--2--2---------|------------------||
D||--0--0--0--3h4----|--2--2--2------2--||
A||------------------|--2--2--2---------||
E||------------------|--0--0--0--3h4----||


e||---------------------||--------------------||
B||---------------------||--------------------||
G||--2--2--2--0--0--0--o||--0--0--0--0--0--0--||
D||--2--2--2--0--0--0--o||--0--0--0--0--0--0--||
A||--0--0--0--x--x--x---||--x--x--x--x--x--x--||
E||-----------3--2--3---||--3--2--3--2--3--4--||


Then back to the main riff one more time, then the solo.

Solo

e||-------------|---------------|-------5-8p5--|-------------||
B||-------------|---------------|-----5--------|-8p5---------||
G||------------o|--5b-----------|--7b---------o|-----7p5-----||
D||--7-xx--7~~-o|-----7-xx--7~~-|-------------o|---------7~~-||
A||-------------|---------------|--------------|-------------||
E||-------------|---------------|--------------|-------------||


e||------------------5h8b~~-|------12-|--15b-15b-15b/-||
B||--------------5h8--------|--15b----|---------------||
G||----------5h7------------|--------o|---------------||
D||------5h7----------------|--------o|---------------||
A||--5h7--------------------|---------|---------------||
E||-------------------------|---------|---------------||


e||--17-20-17-------|------17------|--15b-15b-15b/--||
B||-----------20-17-|----17--20p17-|----------------||
G||-----------------|-19b---------o|----------------||
D||-----------------|-------------o|----------------||
A||-----------------|--------------|----------------||
E||-----------------|--------------|----------------||


Then repeat the "Dirty E
        E        
yes" Riff (3rd riff) 2x.

AC/DC
        C        
 (Guitar chords, ukelele, keyboard, tabs, bass, drums and lyrics)

Este fichero es trabajo propio de su transcriptor y representa su interpretación personal de la canción. El material contenido en esta página es para exclusivo uso privado, por lo que se prohibe su reproducción o retransmisión, así como su uso para fines comerciales.