Decibel


TUNING: Standard

Intro and Verse 1
 Pm..........              Pm..........

E|------------------------|------------------------|
B|------------------------|------------------------|
G|-2-2-2-2-2-2--7p5-------|-2-2-2-2-2-2--7p5-------|
D|-2-2-2-2-2-2-----5~~~~--|-2-2-2-2-2-2-----5~~~~--|
A|-3-0-0-0-3-0------------|-3-0-0-0-3-0------------|
E|------------------------|------------------------|


 Pm..........              Pm..........

E|------------------------|------------------------|
B|------------------------|------------------------|
G|-2-2-2-2-2-2--7p5-------|-2-2-2-2-2-2--7p5-------|
D|-2-2-2-2-2-2-----5~~~~--|-2-2-2-2-2-2-----5~~~~--|
A|-3-0-0-0-3-0------------|-3-0-0-0-3-0------------|
E|------------------------|------------------------|


 Pm..........              Pm..........

E|------------------------|------------------------|
B|------------------------|------------------------|
G|-2-2-2-2-2-2--7p5-------|-2-2-2-2-2-2--7p5-------|
D|-2-2-2-2-2-2-----5~~~~--|-2-2-2-2-2-2-----5~~~~--|
A|-3-0-0-0-3-0------------|-3-0-0-0-3-0------------|
E|------------------------|------------------------|


 Pm..........              Pm..........

E|------------------------|------------------------|
B|------------------------|------------------------|
G|-2-2-2-2-2-2--7p5-------|-2-2-2-2-2-2--7p5-------|
D|-2-2-2-2-2-2-----5~~~~--|-2-2-2-2-2-2-----5~~~~--|
A|-3-0-0-0-3-0------------|-3-0-0-0-3-0------------|
E|------------------------|------------------------|


 Pm..........              Pm..........

E|------------------------|------------------------|
B|------------------------|------------------------|
G|-2-2-2-2-2-2--7p5-------|-2-2-2-2-2-2--7p5-------|
D|-2-2-2-2-2-2-----5~~~~--|-2-2-2-2-2-2-----5~~~~--|
A|-3-0-0-0-3-0------------|-3-0-0-0-3-0------------|
E|------------------------|------------------------|


 Pm..........              Pm..........

E|------------------------|------------------------|
B|------------------------|------------------------|
G|-2-2-2-2-2-2--7p5-------|-2-2-2-2-2-2--7p5-------|
D|-2-2-2-2-2-2-----5~~~~--|-2-2-2-2-2-2-----5~~~~--|
A|-3-0-0-0-3-0------------|-3-0-0-0-3-0------------|
E|------------------------|------------------------|



Bridge
------------------


E|-----3-------------2----|-----3-------------2----|
B|-----3-------------3----|-----3-------------3----|
G|-2---0---------2---2----|-2---0---------2---2----|
D|-2---0---------2---0----|-2---0---------2---0----|
A|-0---2---------0--------|-0---2---------0--------|
E|-----3------------------|-----3------------------|


E|-----3-------------2----|-----3-------------2----|
B|-----3-------------3----|-----3-------------3----|
G|-2---0---------2---2----|-2---0---------2---2----|
D|-2---0---------2---0----|-2---0---------2---0----|
A|-0---2---------0--------|-0---2---------0--------|
E|-----3------------------|-----3------------------|



Verse 2

 Pm..........              Pm..........

E|------------------------|------------------------|
B|------------------------|------------------------|
G|-2-2-2-2-2-2--7p5-------|-2-2-2-2-2-2--7p5-------|
D|-2-2-2-2-2-2-----5~~~~--|-2-2-2-2-2-2-----5~~~~--|
A|-3-0-0-0-3-0------------|-3-0-0-0-3-0------------|
E|------------------------|------------------------|


 Pm..........              Pm..........

E|------------------------|------------------------|
B|------------------------|------------------------|
G|-2-2-2-2-2-2--7p5-------|-2-2-2-2-2-2--7p5-------|
D|-2-2-2-2-2-2-----5~~~~--|-2-2-2-2-2-2-----5~~~~--|
A|-3-0-0-0-3-0------------|-3-0-0-0-3-0------------|
E|------------------------|------------------------|


 Pm..........              Pm..........

E|------------------------|------------------------|
B|------------------------|------------------------|
G|-2-2-2-2-2-2--7p5-------|-2-2-2-2-2-2--7p5-------|
D|-2-2-2-2-2-2-----5~~~~--|-2-2-2-2-2-2-----5~~~~--|
A|-3-0-0-0-3-0------------|-3-0-0-0-3-0------------|
E|------------------------|------------------------|


 Pm..........              Pm..........

E|------------------------|------------------------|
B|------------------------|------------------------|
G|-2-2-2-2-2-2--7p5-------|-2-2-2-2-2-2--7p5-------|
D|-2-2-2-2-2-2-----5~~~~--|-2-2-2-2-2-2-----5~~~~--|
A|-3-0-0-0-3-0------------|-3-0-0-0-3-0------------|
E|------------------------|------------------------|



Chorus
------------------


E|---3-------------2------|---3-------------2------|
B|---3-------------3------|---3-------------3------|
G|-2-0----2-5----2-2------|-2-0----2-5----2-2------|
D|-2-0----2-5----2-0------|-2-0----2-5----2-0------|
A|-0-2----0-3----0--------|-0-2----0-3----0--------|
E|---3--------------------|---3--------------------|


E|---3-------------2------|---3-------------2------|
B|---3-------------3------|---3-------------3------|
G|-2-0----2-5----2-2------|-2-0----2-5----2-2------|
D|-2-0----2-5----2-0------|-2-0----2-5----2-0------|
A|-0-2----0-3----0--------|-0-2----0-3----0--------|
E|---3--------------------|---3--------------------|



Riff for solo
------------------

 Pm..........              Pm..........

E|------------------------|------------------------|
B|------------------------|------------------------|
G|-2-2-2-2-2-2--7p5-------|-2-2-2-2-2-2--7p5-------|
D|-2-2-2-2-2-2-----5~~~~--|-2-2-2-2-2-2-----5~~~~--|
A|-3-0-0-0-3-0------------|-3-0-0-0-3-0------------|
E|------------------------|------------------------|


 Pm..........              Pm..........

E|------------------------|------------------------|
B|------------------------|------------------------|
G|-2-2-2-2-2-2--7p5-------|-2-2-2-2-2-2--7p5-------|
D|-2-2-2-2-2-2-----5~~~~--|-2-2-2-2-2-2-----5~~~~--|
A|-3-0-0-0-3-0------------|-3-0-0-0-3-0------------|
E|------------------------|------------------------|


 Pm..........              Pm..........

E|------------------------|------------------------|
B|------------------------|------------------------|
G|-2-2-2-2-2-2--7p5-------|-2-2-2-2-2-2--7p5-------|
D|-2-2-2-2-2-2-----5~~~~--|-2-2-2-2-2-2-----5~~~~--|
A|-3-0-0-0-3-0------------|-3-0-0-0-3-0------------|
E|------------------------|------------------------|


 Pm..........              Pm..........

E|------------------------|------------------------|
B|------------------------|------------------------|
G|-2-2-2-2-2-2--7p5-------|-2-2-2-2-2-2--7p5-------|
D|-2-2-2-2-2-2-----5~~~~--|-2-2-2-2-2-2-----5~~~~--|
A|-3-0-0-0-3-0------------|-3-0-0-0-3-0------------|
E|------------------------|------------------------|



Chorus
------------------


E|---3-------------2------|---3-------------2------|
B|---3-------------3------|---3-------------3------|
G|-2-0----2-5----2-2------|-2-0----2-5----2-2------|
D|-2-0----2-5----2-0------|-2-0----2-5----2-0------|
A|-0-2----0-3----0--------|-0-2----0-3----0--------|
E|---3--------------------|---3--------------------|


E|---3-------------2------|---3-------------2------|
B|---3-------------3------|---3-------------3------|
G|-2-0----2-5----2-2------|-2-0----2-5----2-2------|
D|-2-0----2-5----2-0------|-2-0----2-5----2-0------|
A|-0-2----0-3----0--------|-0-2----0-3----0--------|
E|---3--------------------|---3--------------------|



Bridge
------------------


E|-----3-------------2----|-----3-------------2----|
B|-----3-------------3----|-----3-------------3----|
G|-2---0---------2---2----|-2---0---------2---2----|
D|-2---0---------2---0----|-2---0---------2---0----|
A|-0---2---------0--------|-0---2---------0--------|
E|-----3------------------|-----3------------------|


E|-----3-------------2----|-----3-------------2----|
B|-----3-------------3----|-----3-------------3----|
G|-2---0---------2---2----|-2---0---------2---2----|
D|-2---0---------2---0----|-2---0---------2---0----|
A|-0---2---------0--------|-0---2---------0--------|
E|-----3------------------|-----3------------------|



Verse 3
------------------

 Pm..........              Pm..........

E|------------------------|------------------------|
B|------------------------|------------------------|
G|-2-2-2-2-2-2--7p5-------|-2-2-2-2-2-2--7p5-------|
D|-2-2-2-2-2-2-----5~~~~--|-2-2-2-2-2-2-----5~~~~--|
A|-3-0-0-0-3-0------------|-3-0-0-0-3-0------------|
E|------------------------|------------------------|


 Pm..........              Pm..........

E|------------------------|------------------------|
B|------------------------|------------------------|
G|-2-2-2-2-2-2--7p5-------|-2-2-2-2-2-2--7p5-------|
D|-2-2-2-2-2-2-----5~~~~--|-2-2-2-2-2-2-----5~~~~--|
A|-3-0-0-0-3-0------------|-3-0-0-0-3-0------------|
E|------------------------|------------------------|


 Pm..........              Pm..........

E|------------------------|------------------------|
B|------------------------|------------------------|
G|-2-2-2-2-2-2--7p5-------|-2-2-2-2-2-2--7p5-------|
D|-2-2-2-2-2-2-----5~~~~--|-2-2-2-2-2-2-----5~~~~--|
A|-3-0-0-0-3-0------------|-3-0-0-0-3-0------------|
E|------------------------|------------------------|


 Pm..........              Pm..........

E|------------------------|------------------------|
B|------------------------|------------------------|
G|-2-2-2-2-2-2--7p5-------|-2-2-2-2-2-2--7p5-------|
D|-2-2-2-2-2-2-----5~~~~--|-2-2-2-2-2-2-----5~~~~--|
A|-3-0-0-0-3-0------------|-3-0-0-0-3-0------------|
E|------------------------|------------------------|


 Pm..........              Pm..........

E|------------------------|------------------------|
B|------------------------|------------------------|
G|-2-2-2-2-2-2--7p5-------|-2-2-2-2-2-2--7p5-------|
D|-2-2-2-2-2-2-----5~~~~--|-2-2-2-2-2-2-----5~~~~--|
A|-3-0-0-0-3-0------------|-3-0-0-0-3-0------------|
E|------------------------|------------------------|


 Pm..........              Pm..........

E|------------------------|------------------------|
B|------------------------|------------------------|
G|-2-2-2-2-2-2--7p5-------|-2-2-2-2-2-2--7p5-------|
D|-2-2-2-2-2-2-----5~~~~--|-2-2-2-2-2-2-----5~~~~--|
A|-3-0-0-0-3-0------------|-3-0-0-0-3-0------------|
E|------------------------|------------------------|



Ending
------------------


E|---3-------------2------|---3-------------2------|
B|---3-------------3------|---3-------------3------|
G|-2-0----2-5----2-2------|-2-0----2-5----2-2------|
D|-2-0----2-5----2-0------|-2-0----2-5----2-0------|
A|-0-2----0-3----0--------|-0-2----0-3----0--------|
E|---3--------------------|---3--------------------|


E|---3-------------2------|---3-------------2------|
B|---3-------------3------|---3-------------3------|
G|-2-0----2-5----2-2------|-2-0----2-5----2-2------|
D|-2-0----2-5----2-0------|-2-0----2-5----2-0------|
A|-0-2----0-3----0--------|-0-2----0-3----0--------|
E|---3--------------------|---3--------------------|



---------------------------------------------------------

Symbols:

p - Pull Off
~ - Vibrato
Pm - Palm mute

AC/DC
        C        
 (Guitar chords, ukelele, keyboard, tabs, bass, drums and lyrics)

Este fichero es trabajo propio de su transcriptor y representa su interpretación personal de la canción. El material contenido en esta página es para exclusivo uso privado, por lo que se prohibe su reproducción o retransmisión, así como su uso para fines comerciales.