Crabsody In Blue


Guitar 1

e|-------0---2---4-----------0---2---4---|
B|---------------------------------------|
G|--0h1--0---2---4------0h1--0---2---4---|
D|---------------------------------------|
A|---------------------------------------|
E|---------------------------------------|


Guitar 2

e|----------------------------------------|
B|----------------------------------------|
G|----------------------------------------|
D|----------------------------------------|
A|-------2---4---2-----------2---4---2----|
E|-------0---0---0-----------0---0---0----|


Guitar 1

e|-------0---2---4-----------0---2---4---|
B|---------------------------------------|
G|--0h1--0---2---0------0h1--0---2---4---|
D|---------------------------------------|
A|---------------------------------------|
E|---------------------------------------|


Guitar 2

e|----------------------------------------------------------------|
B|----------------------------------------------------------------|
G|----------------------------------------------------------------|
D|----------------------------------------------------------------|
A|-2---4---2---4---2---4---2---4---2---4---2---4---2---4---2---4--|
E|-0-0-0-0-0-0-0-0-0-0-0-0-0-0-0-0-0-0-0-0-0-0-0-0-0-0-0-0-0-0-0--|


Both guitars

e|--------------------------------|
B|--------------------------------|
G|--------------------------------|
D|---2---4---2---4---4-4-6-4-4----|
A|---0-0-0-0-0-0-0-0-2-2-2-2-2----|
E|--------------------------------|


Chorus:
Guitar 1

e|-------0---2---4-----------0---2---4---|
B|---------------------------------------|
G|--0h1--0---2---4------0h1--0---2---4---|
D|---------------------------------------|
A|---------------------------------------|
E|---------------------------------------|


Guitar 2

e|----------------------------------------|
B|----------------------------------------|
G|----------------------------------------|
D|----------------------------------------|
A|-------2---4---2-----------2---4---2----|
E|-------0---0---0-----------0---0---0----|


Solo:

|-------------------------------------------------------------|
|-------------------------------------------------------------|
|---6--9~~~---11b---9~~~----6--9~~~~--6---11b---9~------------|
|-9-----------------------9-----------------------------------|
|-------------------------------------------------------------|
|-------------------------------------------------------------|


|-------12-15-16p12---------------------12-15-16-15-16-15-----|
|-12-15-------------12-15-14~~~---12-15-----------------------|
|-------------------------------------------------------------|
|-------------------------------------------------------------|
|-------------------------------------------------------------|
|-------------------------------------------------------------|


|-----------------------------12----------------12p10---------|
|----------------------------------12-15-12~~~~-------10h12---|
|----6-9~~~-7--7--9~~~---14b----------------------------------|
|--9----------------------------------------------------------|
|-------------------------------------------------------------|
|-------------------------------------------------------------|


|------------------------------12b-12-12~~~~------------------|
|--------------12-15-12-10------------------15-12----12b------|
|--------------------------12---------------------14----------|
|-------------------------------------------------------------|
|-------------------------------------------------------------|
|-------------------------------------------------------------|


|-------12-15-16-12-----------------------------------------15-|
|-12-15-----------------------------------------------12-15----|
|-------------------15-14~~~-14-12--------------12-14----------|
|----------------------------------14-12--12-14----------------|
|--------------------------------------------------------------|
|--------------------------------------------------------------|


|-15-15b-15b-15b-15b-15b-15b15----17b-17b-17b-17b-17b-17b-17b-17b---|
|-------------------------------------------------------------------|
|-------------------------------------------------------------------|
|-------------------------------------------------------------------|
|-------------------------------------------------------------------|
|-------------------------------------------------------------------|


|--19b-17--------------------------------------------------------|
|---------20-17-17-20--20-20b-20b-20b-21~~~----------------------|
|----------------------------------------------------------------|
|----------------------------------------------------------------|
|----------------------------------------------------------------|
|----------------------------------------------------------------|


Guitar 1

e|-------0------4--3--2--0----|
B|----------------------------|
G|--0h1--0------4--3--2--0----|
D|----------------------------|
A|----------------------------|
E|----------------------------|


AC/DC
        C        
 (Guitar chords, ukelele, keyboard, tabs, bass, drums and lyrics)

Este fichero es trabajo propio de su transcriptor y representa su interpretación personal de la canción. El material contenido en esta página es para exclusivo uso privado, por lo que se prohibe su reproducción o retransmisión, así como su uso para fines comerciales.