Cold Hearted Man


  Intro

E|----------------------|-------------------|---------------------|
B|----------------------|-------------------|---------------------|
G|--2------5------------|--4----------------|--7------5-----------|
D|--2------5------0h2---|--5----------------|--7------5------5----|
A|--0------3------------|--5----------------|--5------3------5----|
E|----------------------|--3----------------|----------------3----|


                                        Verse:

|-------------------|------------------|-------------------|------------------|
|-------------------|------------------|-------------------|------------------|
|--2----------------|------------------|--2----------------|------------------|
|--2----------------|------------------|--2----------------|------------------|
|--0----------------|------------------|--0----------------|------------------|
|-------------------|------------------|-------------------|------------------|


|-------------------|------------------|-------------------|------------------|
|-------------------|------------------|-------------------|------------------|
|--5----------------|------------------|-------------------|------------------|
|--5----------------|------------------|--5----------------|------------------|
|--3----------------|------------------|--5----------------|------------------|
|-------------------|------------------|--3----------------|------------------|


|--------------------|--------------------|-------------------|
|--------------------|--------------------|-------------------|
|--5------7----------|---------2----------|--2----------------|
|--5------7----------|--5------2----------|--2----------------|
|--3------5----------|--5------0----------|--0----------------|
|--------------------|--3-----------------|-------------------|


|------------------|-------------------|------------------|-------------------|
|------------------|-------------------|------------------|-------------------|
|------------------|--5----------------|------------------|-------------------|
|------------------|--5----------------|------------------|--5----------------|
|------------------|--3----------------|------------------|--5----------------|
|------------------|-------------------|------------------|--3----------------|


                                           C
        C        
horus: |---------------------|-------------------|----------------------| |---------------------|-------------------|----------------------| |--7------5-----------|--2----------------|--2------5------------| |--7------5------5----|--2----------------|--2------5------0-2---| |--5------3------5----|--0----------------|--0------3------------| |----------------3----|-------------------|----------------------| |-------------------|------------------------|--------------------| |-------------------|------------------------|--------------------| |--4----------------|----4--4----4--4--4--4--|--7------6----------| |--5----------------|----5--5----5--5--5--5--|--7------7----------| |--5----------------|----5--5----5--5--5--5--|--5------7----------| |--3----------------|----3--3----3--3--3--3--|---------5----------| |----------------------|-------------------|------------------------| |----------------------|-------------------|------------------------| |--2------5------------|--4----------------|----4--4----4--4--4--4--| |--2------5------0-2---|--5----------------|----5--5----5--5--5--5--| |--0------3------------|--5----------------|----5--5----5--5--5--5--| |----------------------|--3----------------|----3--3----3--3--3--3--| |--------------------|----------------------|-------------------| |--------------------|----------------------|-------------------| |--7------6----------|--2------5------------|-------------------| |--7------7----------|--2------5------0-2---|--5----------------| |--5------7----------|--0------3------------|--5----------------| |---------5----------|----------------------|--3----------------| after 2nd chorus: |---------------------|-------------------|-------------------------| |---------------------|-------------------|-------------------------| |--7------5-----------|--2----------------|-----------5-------------| |--7------5------5----|--2----------------|--7-----------5----------| |--5------3------5----|--0----------------|-----7--7--------7/-9----| |----------------3----|-------------------|-------------------------| |----------------------|-------------------------|----------------------| |----------------------|-------------------------|----------------------| |--7--------5----------|-----------5-------------|--7--------5----------| |-----7----------------|--7-----------5----------|-----7----------------| |--------7-------------|-----7--7--------7/-9----|--------7-------------| |----------------------|-------------------------|----------------------|

AC/DC
        C        
 (Guitar chords, ukelele, keyboard, tabs, bass, drums and lyrics)

Este fichero es trabajo propio de su transcriptor y representa su interpretación personal de la canción. El material contenido en esta página es para exclusivo uso privado, por lo que se prohibe su reproducción o retransmisión, así como su uso para fines comerciales.