COD


 Intro + Verse:

|--3----------------|-------------------|-------------------|------------------|
|--3----------------|----------------6--|----5--------------|------------------|
|--0----------------|----------------5--|----5--------------|------------------|
|--0----------------|----------------7--|----5--------------|------------------|
|-------------------|-------------------|-------------------|------------------|
|--3----------------|-------------------|-------------------|------------------|


|--3--------------3--|-------------------|-------------------|------------------|
|--3--------------3--|----------------6--|----5--------------|------------------|
|--0--------------0--|----------------5--|----5--------------|------------------|
|--0--------------0--|----------------7--|----5--------------|------------------|
|--------------------|-------------------|-------------------|------------------|
|--3--------------3--|-------------------|-------------------|------------------|


Chorus:                C
        C        
. O.  D
        D        
.... |-------------------|------------------------|----------------------| |-------------------|---------------------6--|------6----6--5-------| |----------------0--|--3--5--0--3----0----5--|------5----5--5----0--| |----------------0--|--3--5--0--3----0----7--|------7----7--5----0--| |-------------------|------------------------|----------------------| |-------------------|------------------------|----------------------|  C
        C        
. O.  D
        D        
....  C
        C        
. O.  D
        D        
.... |------------------------|----------------------|------------------------| |---------------------6--|------6----6--5-------|---------------------6--| |--3--5--0--3----0----5--|------5----5--5----0--|--3--5--0--3----0----5--| |--3--5--0--3----0----7--|------7----7--5----0--|--3--5--0--3----0----7--| |------------------------|----------------------|------------------------| |------------------------|----------------------|------------------------| |----------------------|----------------------|------------------|------------------| |------6----6--5----3--|------3----3--1----5--|------------------|------------------| |------5----5--5----3--|------3----3--2----5--|------------------|------------------| |------7----7--5----3--|------3----3--3----5--|------------------|------------------| |-------------------1--|------1----1--0----3--|------------------|------------------| |----------------------|----------------------|------------------|------------------|

AC/DC
        C        
 (Guitar chords, ukelele, keyboard, tabs, bass, drums and lyrics)

Este fichero es trabajo propio de su transcriptor y representa su interpretación personal de la canción. El material contenido en esta página es para exclusivo uso privado, por lo que se prohibe su reproducción o retransmisión, así como su uso para fines comerciales.